Guitaretab - guitar tabs
Song name
# A B C D E F G H I J K L M N O P Q R S T U V W X Y Z

Clapton Eric - Cocaine tab

Cocaine - Eric Clapton

Intro and Verse:

    E   E   D   E      E    D
1|-----------------------------------
2|-----------------------------------
3|--9---9---7---9-----(9)---7--------
4|--9---9---7---9-----(9)---7--------
5|--7---7---5---7-----(7)---5--------
6|-----------------------------------

If you wanna hang out you've got to take her out, cocaine.
If you wanna get down, down on the ground, cocaine.

Chorus:

           E              D              C   B
1|------------------------------------------------------
2|------------------------------------------------------
3|---------9--------------7--------------5---4----------
4|---------9--------------7--------------5---4----------
5|---------7--------------5--------------3---2----------
6|------------------------------------------------------
She don't lie, she don't lie, she don't lie   Cocaine!


If you got bad news, you wanna kick them blues, cocaine.
When your day is done and you wanna run, cocaine.


She donít lie...


If your thing is gone and you wanna ride on, cocaine.
Don't forget this fact, you can't get it back, cocaine.


She donít lie...


Solo


She donít lie...
[ Tab from: http://www.guitaretab.com/c/clapton-eric/23040.html ]
Related for Cocaine tab
Cocaine chords by Clapton Eric