Song name
# A B C D E F G H I J K L M N O P Q R S T U V W X Y Z

Clapton Eric - Cocaine tab

Help us improve GuitareTab! Take a short survey!
Intro

1|--9---9---7---9------9----7--------     x2
2|--9---9---7---9------9----7--------
3|--9---9---7---9------9----7--------
4|--9---9---7---9------9----7--------
5|--7---7---5---7------7----5--------
6|--7---7---5---7------7----5--------
Verse

1|--9---9---7---9------9----7--------     
2|--9---9---7---9------9----7--------
3|--9---9---7---9------9----7--------
4|--9---9---7---9------9----7--------
5|--7---7---5---7------7----5--------
6|--7---7---5---7------7----5--------
If you wanna hang out you've got to take her out, cocaine.

1|--9---9---7---9------9----7--------     
2|--9---9---7---9------9----7--------
3|--9---9---7---9------9----7--------
4|--9---9---7---9------9----7--------
5|--7---7---5---7------7----5--------
6|--7---7---5---7------7----5--------
If you wanna get down, down on the ground, cocaine.

Chorus:
1|---------9--------------7--------------5---4----------
2|---------9--------------7--------------5---4----------
3|---------9--------------7--------------5---4----------
4|---------9--------------7--------------5---4----------
5|---------7--------------5--------------3---2----------
6|---------7--------------5--------------3---2----------
She don't lie, she don't lie, she don't lie     cocaine

1|--9---9---7---9------9----7--------     
2|--9---9---7---9------9----7--------
3|--9---9---7---9------9----7--------
4|--9---9---7---9------9----7--------
5|--7---7---5---7------7----5--------
6|--7---7---5---7------7----5--------
If you got bad news, you wanna kick them blues, cocaine.

1|--9---9---7---9------9----7--------     
2|--9---9---7---9------9----7--------
3|--9---9---7---9------9----7--------
4|--9---9---7---9------9----7--------
5|--7---7---5---7------7----5--------
6|--7---7---5---7------7----5--------
When your day is done and you wanna run, cocaine.

1|---------9--------------7--------------5---4----------
2|---------9--------------7--------------5---4----------
3|---------9--------------7--------------5---4----------
4|---------9--------------7--------------5---4----------
5|---------7--------------5--------------3---2----------
6|---------7--------------5--------------3---2----------
She don't lie, she don't lie, she don't lie     cocaine

1|--9---9---7---9------9----7--------     
2|--9---9---7---9------9----7--------
3|--9---9---7---9------9----7--------
4|--9---9---7---9------9----7--------
5|--7---7---5---7------7----5--------
6|--7---7---5---7------7----5--------
If your thing is gone and you wanna ride on, cocaine.

1|--9---9---7---9------9----7--------     
2|--9---9---7---9------9----7--------
3|--9---9---7---9------9----7--------
4|--9---9---7---9------9----7--------
5|--7---7---5---7------7----5--------
6|--7---7---5---7------7----5--------
Don't forget this fact, you can't get it back, cocaine.

1|---------9--------------7--------------5---4----------
2|---------9--------------7--------------5---4----------
3|---------9--------------7--------------5---4----------
4|---------9--------------7--------------5---4----------
5|---------7--------------5--------------3---2----------
6|---------7--------------5--------------3---2----------
She don't lie, she don't lie, she don't lie     cocaine

Then the solo... (I don't know this part) 

1|---------9--------------7--------------5---4----------
2|---------9--------------7--------------5---4----------
3|---------9--------------7--------------5---4----------
4|---------9--------------7--------------5---4----------
5|---------7--------------5--------------3---2----------
6|---------7--------------5--------------3---2----------
She don't lie, she don't lie, she don't lie     cocaine

1|---------9--------------7--------------5---4----------
2|---------9--------------7--------------5---4----------
3|---------9--------------7--------------5---4----------
4|---------9--------------7--------------5---4----------
5|---------7--------------5--------------3---2----------
6|---------7--------------5--------------3---2----------
She don't lie, she don't lie, she don't lie     cocaine



Related for Cocaine tab