Guitaretab - guitar tabs
Song name
# A B C D E F G H I J K L M N O P Q R S T U V W X Y Z

Clapton Eric - Classical Gas tab

This isnt the whole song but ill go up to as much as i know and you can go to a diffrent 
and look at the rest cause i know that part is right!


|----------------------------------------------------------------------|
|----------------------------------------------------------------------|
|----------------------------------------------------------------------|
|-8-x-x-8-8/6-6-6-6-----------------------------------------------x4---|
|-6-x-x-6-6/4-4-4-4-6-6-6----------------------------------------------|
|-------------------4-4-4----------------------------------------------|
[ Tab from: http://www.guitaretab.com/c/clapton-eric/24168.html ]
|----------------------------------------------------------------------|
|----------------------------------------------------------------------|
|----------------------------------------------------------------------|
|-8-8-8-8-8-6-6-6-6-6-8-x-x-8-8-8-8-8-8--8-8-8-8-8-6-6-6-6-6-----------|
|-6-6-6-6-6-4-4-4-4-4-6-x-x-6-6-6-6-6-6--6-6-6-6-6-4-4-4-4-4--4-4-4-4-4|
|-------------------------------------------------------------2-2-2-2-2|


|----------------------------------------------------------------------|
|----------------------------------------------------------------------|
|----------------------------------------------------------------------|
|----------------------------------------------------------------------|
|-6-6-6-6-6------------------------------------------------------------|
|-4-4-4-4-4------------------------------------------------------------|


You basically play this through the whole song and then the solo.. but ill put the solo 
another tab
Related for Classical Gas tab
×
Classical Gas