Song name
# A B C D E F G H I J K L M N O P Q R S T U V W X Y Z

Clapton Eric - Bad Love tab

-------------------------------------------------------------------------------
			     Bad Love - Eric Clapton (Solo)
-------------------------------------------------------------------------------

Email:giantinsect@hotmail.com

Tuning: E A D G B e (Standard)

3:07
e|------------------------------2------------------------------------2-------|
B|------------------------------3------------------------------------3-------|
G|------------------------------2------------------------------------2-------|
D|---------------------------------------------------------------------------|
A|--0h2--3--2--0------------0----------0h2--3--2--0--------------0-----------|
E|----------------3------2-----------------------------3-------2-------------|

3:15
e|------------------------------2---------------------------------2----------|
B|------------------------------3---------------------------------3----------|
G|------------------------------2---------------------------------2----------|
D|---------------------------------------------------------------------------|
A|--0h2--3--2--0------------0----------0h2--3--2--0--------------------------|
E|----------------3------2-----------------------------3-------2-------------|

3:24
e|---------------------------------------------------------------------------|
B|---------------------------------------------------------------------------|
G|--17b19------x--17b--x--17b--x--17b--x--17b--x--17b-------x--17b--x--17b---|
D|---------------------------------------------------------------------------|
A|---------------------------------------------------------------------------|
E|---------------------------------------------------------------------------|

3:28
e|---------------------------------------------------------------------------|
B|--17b19----------15--15--15--17b19-----15--15--------15--17----------------|
G|-------------------------------------------------16------------------------|
D|---------------------------------------------------------------------------|
A|---------------------------------------------------------------------------|
E|---------------------------------------------------------------------------|

3:33
e|------------------------------------------17b18----------------------------|
B|--17br--15------15--15--15--(15)-------------------------------------------|
G|------------17-------------------------------------------------------------|
D|---------------------------------------------------------------------------|
A|---------------------------------------------------------------------------|
E|---------------------------------------------------------------------------|

3:37
e|--17--15--17p15----15------------------------------------------------------|
B|----------------18----18p15----15----------15----15--18--18p15----15-------|
G|----------------------------17-------17b19----17---------------18----------|
D|---------------------------------------------------------------------------|
A|---------------------------------------------------------------------------|
E|---------------------------------------------------------------------------|

3:41/42
e|-----------------------------------20--------------------------------------|
B|--------15-------18--20--20b22---------20b22----18--20b22-----18-----------|
G|--17b19-----------------------------------------------------------19--19---|
D|---------------------------------------------------------------------------|
A|---------------------------------------------------------------------------|
E|---------------------------------------------------------------------------|

3:46
e|--17--20--20------22br-----------------------------------------------------|
B|---------------------------------------------------------------------------|
G|---------------------------------------------------------------------------|
D|---------------------------------------------------------------------------|
A|---------------------------------------------------------------------------|
E|---------------------------------------------------------------------------|

3:49
e|--20-22---22-20------------------------------------------------------------|
B|---------------22--20-19-20--19h20p19---19---------------------------------|
G|-------------------------------------21----21-19-21-19---------------------|
D|---------------------------------------------------------------------------|
A|---------------------------------------------------------------------------|
E|---------------------------------------------------------------------------|

3:52
e|---------------------------------------------------------------------------|
B|--6------------------------------------------------------------------------|
G|-----7--5------------------------------------------------------------------|
D|-----------5--3------------------------------------------------------------|
A|---------------------------------------------------------------------------|
E|---------------------------------------------------------------------------|

That's the solo to Bad Love and is personally one of my favourite Clapton songs.
I am 99% its right but if you want to add anything e-mail me above.

| /  slide up
| \  slide down
| h  hammer-on
| p  pull-off
| ~  vibrato
| +  harmonic
| x  Mute note
===============================================================================
Tap to rate this tab
# A B C D E F G H I J K L M N O P Q R S T U V W X Y Z