Song name
# A B C D E F G H I J K L M N O P Q R S T U V W X Y Z

Clapton Eric - Danny Boy tab

Danny Boy - Traditional
Acoustic Gtr. 1 (D A G D G C)

Fingerstyle
D||--------|---------|----2--0---|-----------|
A||--------|-2-----0-|-2---------|-----------|
G||------0-|---------|---------4-|----0-4h5--|
D||--4h5---|-0-----0-|-0---------|-----------|
G||--------|-0--0----|-0---------|-----------|
C||--------|-------6-|-----------|-0---------|

D|-0-----2-|-0--------|----------|----------|
A|---------|----2---2-|-0--------|-0------0-|
G|-0-------|------0---|--------0-|------0---|
D|---------|-4--------|-2----2---|----4-----|
G|-0-------|-4--------|----0-----|----------|
C|----4----|----------|-0--------|-2--------|

D|---------|----2-2p0---|------------|-----------|
A|-2-----0-|-2----------|------------|-------2h3-|
G|---------|----------4-|-2-p0-------|----0------|
D|---------|------------|-------2----|-----------|
G|-0-------|------------|----------4-|-2---------|
C|----2----|-4----------|-2-----0----|-----------|

D|------------|-----------|---------------|
A|-2--------3-|-2p0-----0-|-------3p2p0---|
G|------------|------0----|-0---0-------0-|
D|-0----------|-----------|---0-----------|
G|-0----------|-----------|-0-------------|
C|----2--4----|-0-------2-|---------------|

D|----0--2--4/5-|-5----------4-|-4-------0-------|
A|--------------|--------------|-----7-------7---|
G|-0------------|---------0----|---0---0---0---0-|
D|--------------|-------0------|-----------------|
G|-0------------|-0-2-4--------|-5---------------|
C|--------------|--------------|-----------------|

D|-0------------|----0h2-2/4-4/5-|-5----------4-|
A|--------------|----------------|--------------|
G|----4--4p0----|----------------|--------------|
D|--------------|----------------|---------0----|
G|-5----------4-|-2--------------|---0-4h5------|
C|--------------|----------------|-4------------|

D|-4--2-0----|-----------------|-----0--0h2p0--0-|
A|-0-------2-|-0-------0-------|-0---------------|
G|-----------|-------0---0---0-|-----------------|
D|-----------|-----2-------2---|-----0-----------|
G|-----------|---0-------------|---2-----------5-|
C|-2---------|-0---------------|-2------2--------|

D|-9----------7-|-7-------------|-0----------|------------|
A|--------------|-----10-----10-|----2-------|----------0-|
G|---------0----|----------9----|-0-----0----|-------0----|
D|---0-7h9------|---------------|------------|----4-------|
G|-0------------|---0----0------|-0----------|------------|
C|--------------|-0-------------|----------2-|-4----------|

D|----2--0----|----------------|-----------------|
A|-2--------2-|-0h2p0----------|-------0-3p2-0h2-|
G|------------|--------0-------|-0---0-----------|
D|------------|-----------2--4-|---0-------------|
G|-0----------|----------------|-0---------------|
C|------------|-0------------2-|-----------------|

D|----0h2-2h4-4/5-|-5-----------4---|-4---2---0---2-0-|
A|----------------|-----0---0-----0-|-----------------|
G|-0--------------|---0---0---0-----|---0---0---0-----|
D|----------------|-----------------|-----------------|
G|-0--------------|-5---------------|-4---------------|
C|----------------|-----------------|-----------------|

D|-------------------|------0h2-2/4---|-5----------4-|
A|-------0h2p0-------|----------------|--------------|
G|-----0-------0---0-|----------------|--------------|
D|---2-----------0---|---4------------|---------0----|
G|-2-----------------|-4--------------|---0-4-5------|
C|-------------------|--------------6-|-4------------|

D|-4--2-0----|---------------------|----0---0h2p0-0---|
A|-0-------2-|-3-3p2-0---0h2-2p0---|------------------|
G|----0------|---------0---------0-|------------------|
D|------4--0-|-2-------------------|-2----------------|
G|-----------|-----------2---------|----------------5-|
C|-2---------|-0-------------------|-0----0-----------|

D|-9-----------7-|-7---5--------|-0-----------|------------|
A|---0-----------|--------7-/10-|----2--------|----------0-|
G|-----0---------|-----5--------|-------0-----|-------0----|
D|-------0-------|---5----------|-------------|----4-------|
G|-0-------10----|-5------------|-0-----------|------------|
C|---------------|--------------|---------4-2-|-1----------|

D|----2--0----|------------|-----|
A|-2--------2-|-0----------|-----|
G|------------|----0-------|-0---|
D|-0----------|-2-----2--4-|-0---|
G|-0----------|------------|-0---|
C|------------|-0--------2-|-----|

Comments, Questions, Tips, Anything send to: Jared at

dragen_slair@hotmail.com
Tap to rate this tab
# A B C D E F G H I J K L M N O P Q R S T U V W X Y Z