Song name
# A B C D E F G H I J K L M N O P Q R S T U V W X Y Z

Clapton Eric - Give Me Strength tab

http://www.nomotiv.com/index.html   (other tabbers are idiots and spelled
                                     the band name wrong)

Standard Tuning

Intro/Outro x2

Guitar1
----------------------------------------------------------|
--8br8----------8br8--------------------------------------|
---------6-6-6--------6-----------------------------------|
-------------------------9---7----------------------------|
--------------------------------9-------------------------|
----------------------------------------------------------|

----------------------------------------------------------|
--8br8-----------8br8-------------------------------------|
--------6-6br6--------10--8--10---------------------------|
---------------------------------8------------------------|
----------------------------------------------------------|
----------------------------------------------------------|

Guitar2
----------------------------------------------------------------------|
----------------------------------------------------------------------|
----------------------------------------------------7-7-7-7---2-2-2-2-|
-4-4-4-4-4-4-4-4--2-2-2-2-2-2-2-2--4-4-4-4-4-4-4-4--7-7-7-7---2-2-2-2-|
-4-4-4-4-4-4-4-4--2-2-2-2-2-2-2-2--4-4-4-4-4-4-4-4--5-5-5-5---0-0-0-0-|
-2-2-2-2-2-2-2-2--0-0-0-0-0-0-0-0--2-2-2-2-2-2-2-2--------------------|


Verse and Chorus

----------------------------------------------------------------------|
----------------------------------------------------------------------|
----------------------------------------------------7-7-7-7---2-2-2-2-|
-4-4-4-4-4-4-4-4--2-2-2-2-2-2-2-2--4-4-4-4-4-4-4-4--7-7-7-7---2-2-2-2-|
-4-4-4-4-4-4-4-4--2-2-2-2-2-2-2-2--4-4-4-4-4-4-4-4--5-5-5-5---0-0-0-0-|
-2-2-2-2-2-2-2-2--0-0-0-0-0-0-0-0--2-2-2-2-2-2-2-2--------------------|


Well thats pretty much it.....

Feedback....steve_1101@hotmail.com

ANBERLIN IS GOD!!!!!!!!!!!!!!! (check 'em out)
Tap to rate this tab
# A B C D E F G H I J K L M N O P Q R S T U V W X Y Z