Song name
# A B C D E F G H I J K L M N O P Q R S T U V W X Y Z

Clapton Eric - Its Too Late tab

Its Too Late - Rides Again 
Guitar
Tuning: Db Ab Db Gb Bb eb

Intro part 1: 1x
eb:---------------------------------------:
Bb:---------------------------------------:
Gb:---------------------------------------:
Db:---------------------------------------:
Ab:------55-5-----33-3-----55-5-----------:
Db:--00-0-----00-0-----00-0-----07030501--:

Intro part 2: 1x
eb:---------------------------------------:
Bb:---------------------------------------:
Gb:------77-7-----55-5-----77-7-----------:
Db:--00-0xx-x-00-0xx-x-00-0xx-x-07030501--:
Ab:--00-055-5-00-033-3-00-055-5-07030501--:
Db:--00-0-----00-0--- -00-0-----07030501--:

Verse Part 1: (Guitar Only) 2x (Second time dont do last 7-700 )
eb:---------------------------------------:
Bb:---------------------------------------:
Gb:---------------------------------------:
Db:--------------------------------7-700--:
Ab:----------11111111--------------7-700--:
Db:--00000000--------333333335555557-700--:
   PM..............................

Verse part 2: 2x (Second time dont do last chord)
eb:------------------------------------:
Bb:------------------------------------:
Gb:----------3~------------------------:
Db:--0~------3~------3~------5~--3~----:
Ab:--0~------1~------3~------5~--3~----:
Db:--0~--------------3~------5~--3~----:

Pre-Chorus:
eb:--------------------:
Bb:--------------------:
Gb:--7777777777777777--:
Db:--xxxxxxxxxxxxxxxx--:
Ab:--5555555555555555--:
Db:--------------------:

Chorus: 2x
eb:--------------------------------------------------------------------:
Bb:--------------------------------------------------------------------:
Gb:------------------3333333333333333------------------------77772222--:
Db:--00000000000000003333333333333333333333333333333355555555xxxxxxxx--:
Ab:--0000000000000000111111111111111133333333333333335555555555550000--:
Db:--0000000000000000----------------333333333333333355555555----------:

Intro part 2: 1x
Verse part 1: 2x
Verse part 2: 2x
Prechorus: 1x
Chorus: 2x

Bridge: 2x
eb:--------------------------------------------------------------------:
Bb:--------------------------------------------------------------------:
Gb:------------------3333333333333333----------------------------------:
Db:--0000000000000000333333333333333333333333333333335555555555555555--:
Ab:--0000000000000000111111111111111133333333333333335555555555555555--:
Db:--0000000000000000----------------33333333333333335555555555555555--:

Bridge Part 2: 2x
(I know this part looks really messy but theres alot of bends and strokes, listen closely)
eb:---------------------------------:
Bb:---------------------------------:
Gb:----7^-------5^5^--7^------------:
Db:--00x-----00-x-x-00x---07030501--:
Ab:--005^----00-3^3^005^--07030501--:
Db:--00------00-----00----07030501--:

Verse Part 1: 1x
Verse Part 2: 1x
Pre-Chorus: 2x
Chorus: 2x
Intro part 2: 2x 


LEGEND:
PM.. =  Palm Mute
^    =  Bend
x    =  Mute string
Tap to rate this tab
# A B C D E F G H I J K L M N O P Q R S T U V W X Y Z