Guitaretab - guitar tabs
Song name
# A B C D E F G H I J K L M N O P Q R S T U V W X Y Z

Clapton Eric - Malted Milk tab

Tuning: Standard

----10--10--10--10--10--10--10--10--10--|--10----------3-----3-------|
--------10------------------------------|-----------2-----2----------|
----------------------------------------|-----------------2-----2----|
--------10------9-----------8-----------|--7-----2--------------2----|
----------------------------------------|----------------------------|
----------------------------------------|----------------------------|

--5---------------------|--3----3------3---------|
--3----3----3----3------|--3----3------3----3----|
--5----5----5----5--2/3-|--4----4--2/3-4---------|
------------------------|------------------------|
------------------------|------------------------|
------------------------|------------------------|

------5--5--5--4--4--4--3--3--3--|--------------5--5--5--5------|
------7--7--7--6--6--6--5--5--5--|--3--3--3--3--3--3--3--3------|
---------------------------------|-----------5--5--5--5--5--2/3-|
---------------------------------|------------------------------|
---------------------------------|------------------------------|
---------------------------------|------------------------------|
[ Tab from: http://www.guitaretab.com/c/clapton-eric/3471.html ]
--3----3------3----3-----|--3----3-----3----3-----|-------------------------|
--3----3------3----3-----|--3----3-----3----3--3--|-------5b-5b-5b----5b-3--|
--4----4--2/3-4----4--2--|--4----4--2--4----4-----|----------------4--------|
-------------------------|------------------------|--x----------------------|
-------------------------|------------------------|--x----------------------|
-------------------------|------------------------|-------------------------|

-----5--------2--5--5-----|--2-----------|--3---------------------|
--3-----3-----3-----3-----|--3-----------|--2---------------------|
--------2--4--------2--4--|--------------|-------2------------2/3-|
--------------------------|-----4--3--2--|--2---------2----2------|
--------------------------|--------------|------------------------|
--------------------------|--------------|------------------------|

-----------------------|-----5--5--5--4--4--4-----|-----3--3--3--3---------|
--3----3----3--3----3--|-----4--4--4--3--3--3-----|-----2--2--2--2---------|
--4----4----4----------|--2--5--5--5--4-----4-----|--------2-----2---------|
-----------------------|--0-----4--4--3-----3-----|--2-----------2----x----|
-----------------------|-----------------------0--|-------------------x----|
-----------------------|--------------------------|------------------------|

Notation used:
b-bend
/-slide
x-muted note
Related for Malted Milk tab
Advertisement will be closed in 10 seconds