Song name
# A B C D E F G H I J K L M N O P Q R S T U V W X Y Z

Clapton Eric - Motherless Child tab

From: mklem@vax2.winona.msus.edu
Subject: TAB:  Motherless Child--Clapton
Date: 7 Aug 95 14:52:19 CST

This is an old Barbecue Bob song that Clapton arranged and plays on
his "From the Cradle" album.  I hope you like it.

The rhythem may not match up exactly but from it you can get a fair feel for
how the song is played.  Just listen for the changes.

The guitar is a twelve string accoustic capoed at the 4th fret.

Tuning:  Open G
         DBGDGD


                        Motherless Child

Intro:

-0-0-0-0-0-0-0-0-0-0-0-0-0-0-0-0-0-0-0-0-0-0-0-0-0-0--------------
-0-0-0-0-0-0-0-0-0-0-0-0-0-0-0-0-0-0-0-0-0-0-0-0-0-0--------------
-0-0-0-0-0-0-0-0-0-0-0-0-0-0-0-0-0-0-0-0-0-0-0-0-0-0--------------
-0-0-0-0-0-0-0-0-0-0-0-0-0-0-0-0-0-0-0-0-0-0-0-0-0-0--------------
-0---0---0---0---0---0---0---0---0---0---0---0---0----------------
-0---0---0---0---0---0---0---0---0---0---0---0---0----------------

Repeating rhythem figure for entire song:

0-0-0-0-0-0-0-0--5-5-5-5-5-5-5-5-5-5-5-5-5-5---0-0-0-0-0-0-0-----
0-0-0-0-0-0-0-0--5-5-5-5-5-5-5-5-5-5-5-5-5-5---0-0-0-0-0-0-0-----
0-0-0-0-0-0-0-0--5-5-5-5-5-5-5-5-5-5-5-5-5-5---0-0-0-0-0-0-0-----
0-0-0-0-0-0-0-0--5-5-5-5-5-5-5-5-5-5-5-5-5-5---0-0-0-0-0-0-0-----
0---0---0---0----5-5-5-5-5-5-5-5-5-5-5-5-5-5---0-0-0-0-0-0-------
0---0---0---0----------------------------------0-0-2-0-2-0-------

-0-0-0-0-0-0-0--0-0-0-0-0-0-0---0-0-0-0-0-0-0-0--5-5-5-5--5-5-5--
-0-0-0-0-0-0-0--0-0-0-0-0-0-0---0-0-0-0-0-0-0-0--5-5-5-5--5-5-5--
-0-0-0-0-0-0-0--0-0-0-0-0-0-0---0-0-0-0-0-0-0-0--5-5-5-5--5-5-5--
-0-0-0-0-0-0-0--0-0-0-0-0-0-0---0-0-0-0-0-0-0-0--5-5-5-5--5-5-5--
-0-0-0-0-0-0----0-0-0-0-0-0-----0---0---0---0----5-5-5-5--5-5-5--
-0-0-2-0-2-0----0-0-2-0-2-0-----0---0---0---0--------------------

-5-5-5-5--5-5--0-0-0-0-0-0-0--0-0-0-0-0-0-0--0-0-0-0-0-0-0-------
-5-5-5-5--5-5--0-0-0-0-0-0-0--0-0-0-0-0-0-0--0-0-0-0-0-0-0-------
-5-5-5-5--5-5--0-0-0-0-0-0-0--0-0-0-0-0-0-0--0-0-0-0-0-0-0-------
-5-5-5-5--5-5--0-0-0-0-0-0-0--0-0-0-0-0-0-0--0-0-0-0-0-0-0-------
-5-5-5-5--5-5--0-0-0-0-0-0----0-0-0-0-0-0----0-0-0-0-0-0---------
-5-5-5-5-------0-0-2-0-2-0----0-0-2-0-2-0----0-0-2-0-2-0---------

-0-0-0-0--0-0-0-0--0-0-0-0--0-0-0-0-0-0-0--0-0-0-0-0-0-0---------
-1-1-1-1--1-1-1-1--1-1-1-1--0-0-0-0-0-0-0--0-0-0-0-0-0-0---------
-2-2-2-2--2-2-2-2--2-2-2-2--0-0-0-0-0-0-0--0-0-0-0-0-0-0---------
-0-0-0-0--0-0-0-0--0-0-0-0--0-0-0-0-0-0-0--0-0-0-0-0-0-0---------
-2-2-2-2--2-2-2-2--2-2-2-2--0-0-0-0-0-0----0-0-0-0-0-0-----------
-0-0-0-0--0-0-0-0--0-0-0-0--0-0-2-0-2-0----0-0-2-0-2-0-----------

-0-0-0-0-0-0-0---------------------------------------------------
-0-0-0-0-0-0-0---------------------------------------------------
-0-0-0-0-0-0-0---------------------------------------------------
-0-0-0-0-0-0-0---------------------------------------------------
-0-0-0-0-0-0-----------------------------------------------------
-0-0-2-0-2-0-----------------------------------------------------

Repeat the above over and over again.


Outro:

-0--0----0--0--0----0--
-0--0----0--0--0----0--
-0--0----0--0--0----0--
-0--0h2--2--0--0----0--
-0--0----0--0--3/4--0--
-0--0----0--0--0----0--

I believe there is another 12-string part done by Andy Fairweather
Low, and a third normal 6-string accoustic part that kicks in
later.  I believe that Andy is doubling Clapton in this piece.


Lyrics:

If I mistreat you girl,
Sure don't mean you no harm.
If I mistreat you girl,
I sure don't mean no harm.
Well I'm a motherless child, 
I don't know right from wrong.

Please tell me pretty mama,
honey where did you stat last night?
Please tell me pretty mama,
honey, where did you stal last night?
Well, you didn't come home till the sun was shinning bright.

I have to go so far girl,
To get my hambones boiled  [?]
Have to go so far girl,
To get my hambones boiled.
Well, he's had a lot of women,
gonna let my hambone burn.

Hell, I did more for you girl,
Than your daddy ever done.
Hell, I did more for you girl,
Than your daddy ever done.
Well, I give you my jewelry,
And he ain't give you none.


And when you see two women,
Always running hand in hand,
And when you see two women,
Always running hand in hand,
You can bet your bottom dollar,
One got the other one's man.

But I'm going to the river,
Get me a tangled rocking chair.
I'm going to the river,
Get me a tangled rocking chair.
And if the blues over take me,
Take me away from here.


Tap to rate this tab
 
# A B C D E F G H I J K L M N O P Q R S T U V W X Y Z