Song name
# A B C D E F G H I J K L M N O P Q R S T U V W X Y Z

Clara Chung - Off-beat tab

---------------------------------------------------------
	"Off-Beat" by Clara Chung

 http://www.youtube.com/watch?v=9BaC8Xfmv48
---------------------------------------------------------
Tabbed by: Justin Riray
Youtube:   http://www.youtube.com/JustinRiray
Facebook:  http://www.facebook.com/riray

Clara Chung is an amazing artist from SoCal.
Her musical talent and musicality is so inspiring.
Check her out at http://www.youtube.com/user/ClaraCMusic

Tuning: Standard (EADGBe)

     INTRO (lead)
e|--------------------------3-----|
B|---3------3------1---------3-3--|
G|--4-4-4--4-4-4--2-2-2----0--0---|
D|-5---5--4---4--3---3--0h2-------|
A|--------------------------------|
E|--------------------------------|

    INTRO/VERSE 
  (rythym chords)
e|--3--2--1--3--|
B|--3--3--1--3--|
G|--4--4--2--0--|
D|--5--4--3--2--|
A|--5--2--3--3--|
E|--3--2--1--x--|

     Pre-CHORUS
e|--0----3--3----0----3--3--3--|
B|--0----3--3----0----3--3--3--|
G|--0----4--0----0----4--0--0--|
D|--2--4-5--2----2--4-5--2--1--|
A|--2--4-5--3----2--4-5--3--3--|
E|--0--2-3--x----0--2-3--x--x--|


     CHORUS       [ending]
e|--3--2--1--3-------3--3-|
B|--3--3--1--3-------5--4-|
G|--4--4--2--0-------5--5-|
D|--5--4--3--2-------5--5-|
A|--5--2--3--3-------3--3-|
E|--3--2--1--x------------|
Tap to rate this tab
 
# A B C D E F G H I J K L M N O P Q R S T U V W X Y Z