Song name
# A B C D E F G H I J K L M N O P Q R S T U V W X Y Z

Clara Chung - Off-beat tab

So... This is my first tab/chord submission and hope you enjoy~~~.

(h)-hammer on


[Intro]
E|--------------------------------------------------------------------------|
B|-----------3--------------------3---------------------1-------------------|
G|-----0--------0------0----0---------0-----0-----0---------0-----0-------0-|
D|--5-----5--------5-----4-----4---------4-----3-----3---------3----0h2-----|
A|--------------------------------------------------------------------------|
E|--------------------------------------------------------------------------|

e|----3---------------------------------------------------------------------|
B|--------------------------------------------------------------------------|
G|--------------------------------------------------------------------------|
D|--2-----------------------------------------------------------------------|
A|--------------------------------------------------------------------------|
E|--------------------------------------------------------------------------|
Special F indicated by *F*

E|----------------|
B|----------------|
G|----------------|
D|--0h2--0--------|
A|----------2--3--|
E|----------------|
   Okay.. the chords in the other tabs seemed slightly off no matter how I played it so, 
I changed some...

      G     D/F#    F      C       C2     Em7     Cm7(ithink)   A7
e|----3------3------1------0-------3-------3-------3-------------0---------|
B|----3------3------1------1-------3-------3-------3-------------2---------|
G|----0------2------2------0-------0-------0-------0-------------0---------|
D|----0------3------3------2-------2-------2-------1-------------2---------|
A|----2------0------0------3-------3-------2-------3-------------0---------|
E|----3------0------0------0-------0-------0-------0-------------0---------|

*palm mute until pre-chorus*
[Verse 1]
 G                        D/F#
I want a library full of our stories
 F                        C
A ship to keep our memories afloat
 G
I wanna hit rewind
 D/F#
Play back a hundred times
 F                            C
The moment when our hearts aligned

|Verse x2|
La la la la la la la
La la la la la la la la (x2)


[Pre-Chorus]
Em7          G
Forget the air
C2
I'll breathe you instead
Em7          G
Fill up my lungs
           C2
Forget to exhale
     Cm7
Exhaaaaaale


[Chorus]
G       D/F#
I'll be down
              F      C
You be my offbeat
G               D/F#
Let's make rh-rh-rh-rhythm
       A7
And harmony
C             Cm
Waltz to our 3/4
                                 G
'Cause you put the art in my heart


[Verse 2]
G
Your warmth and sunny rays
                 D/F#
I'll save for rainy days
*F*
To break in case of emergency
G
And then I'll shut these eyes
D/F#
Playback a thousand times
F                          C
The moment when our hands intertwined


[Pre-Chorus]
Em7          G
Forget the air
C2
I'll breathe you instead
Em7          G
Fill up my lungs
           C2
Forget to exhale
     Cm7
Exhaaaaaale


[Chorus]
G       D/F#
I'll be down
              F      C
You be my offbeat
G               D/F#
Let's make rh-rh-rh-rhythm
       A7
And harmony
C             Cm
Waltz to our 3/4
                                 G
'Cause you put the art in my heart

[Intro x4]


Any questions or corrections e-mail to jeremyyno@gmail.com
Tap to rate this tab
 
# A B C D E F G H I J K L M N O P Q R S T U V W X Y Z