Song name
# A B C D E F G H I J K L M N O P Q R S T U V W X Y Z

Clara Chung - Camel Song tab

-------------------------------------------------------------------------------
			     Camel Song - Clara Cheung
-------------------------------------------------------------------------------
Tabbed by: Roldan Galvadores
Tuning: Standard

here's my very first tab, hope you guys like it
learned it by playing the videos over and over.


Intro:
e|------------------------------------------------1---1---
B|-5---5---8---8---10---10----9----9-----1---1----1---1---|
G|-4---4---9---9---9----9-----10---10----2---2----2---2---|
D|-5---5---9---9---10---10----10---10----2---2--0---0-----|
A|3--3----7--7---8----8-----8----8-----0---0------------3~|
E|--------------------------------------------------------|

Verse:

Riff 1
e|------------------------------------------------1---1-------|
B|-5---5---8---8---10---10----9----9-----1---1----1---1-------|
G|-4---4---9---9---9----9-----10---10----2---2----2---2-------|
D|-5---5---9---9---10---10----10---10----2---2--0---0------0-2|
A|3--3----7--7---8----8-----8----8-----0---0-------------3----|
E|------------------------------------------------------------|

Riff 2
e|-------------------------------------------------1---1----------|
B|-5---5----8---8---10---10----9----9-----1---1----1---1----0---0-|
G|-4---4----9---9---9----9-----10---10----2---2----2---2----1---1-|
D|-5---5----9---9---10---10----10---10----2---2--0---0------2---2-|
A|3--3----7---7---8----8-----8----8-----0---0-------------2---2---|
E|----------------------------------------------------------------|

Riff 3
e|------------------------------------------------------------3|
B|--1---1---5---5----10---10----9----9-----8---8--------------3|
G|--2---2---4---4----9----9-----10---10----9---9--------------0|
D|--2---2---5---5----10---10----10---10----9---9----------2-2-2|
A|0---0----3--3----8----8-----8----8-----7---7------0-2-3--3--3|
E|------------------------------------------------3------------|

Chorus
e|-0---0---0---0---0---0---1---0---0---0---0---0---0---3---3|
B|-1---0---1---1---0---1---1---0---1---1---1---1---0---3---3|
G|-0---0---2---1---0---2---2---0---0---0---2---1---0---0---0|
D|-2---2---3---3---2---2---0---2---2---2---3---3---2---0---2|
A|-3---2---0---0---2---0---0---2---0---3---0---0---2---2---3|
E|-0---0---0---0---0---0---0---0---0---0---0---0---0---3---0|

Repeat Verse (from riff 2)
Repeat Chorus
Repeat Verse (from riff 2)
Repeat Verse (from riff 2)

Bridge:

Am(002210) Em(022000) Fmaj7(003210) Fmmaj7(003110)
(repeat)


Ending:

e|-------------------------------------------------1---1----------|
B|-5---5----8---8---10---10----9----9-----1---1----1---1----0---0-|
G|-4---4----9---9---9----9-----10---10----2---2----2---2----1---1-|
D|-5---5----9---9---10---10----10---10----2---2--0---0------2---2-|
A|3--3----7---7---8----8-----8----8-----0---0-------------2---2---|
E|----------------------------------------------------------------|

e|-----------------------------------------------|
B|--1------5------10-------9-------8-------------|
G|--2------4------9--------10------9-------------|
D|--2------5------10-------10------9-------------|
A|--0-------------8--------8-------7-------0-2-3~|
E|---------------------------------------3-------|
Tap to rate this tab
# A B C D E F G H I J K L M N O P Q R S T U V W X Y Z