Song name
# A B C D E F G H I J K L M N O P Q R S T U V W X Y Z

Clara Chung - Camel Song tab

The Camel Song
By Clara C
Tabbed by Larry Huang (with help from elims1's and Rolan Galvadores' tab)
Standard Tuning
No Capo


Intro
e|---------------------------------------------------------3---3---|
B|---------8---8---10---10----9----9-----8---8----1---1----1---1---|
G|-4---4---9---9---10---10----10---10----9---9----2---2----2---2---|
D|-5---5---9---9---10---10----10---10----9---9----2---2--0---0-----|
A|3--3----7--7---8----8-----8----8-----7---7----0---0--------------|
E|---------------------------------------------------------------3~|

Verse
Riff 1
e|---------------------------------------------------------3---3-------|
B|---------8---8---10---10----9----9-----8---8----1---1----1---1-------|
G|-4---4---9---9---10---10----10---10----9---9----2---2----2---2-------|
D|-5---5---9---9---10---10----10---10----9---9----2---2--0---0---------|
A|3--3----7--7---8----8-----8----8-----7---7----0---0--------------0-2-|
E|---------------------------------------------------------------3-----|

Riff 2
e|---------------------------------------------------------3---3---------|
B|---------8---8---10---10----9----9-----8---8----1---1----1---1---------|
G|-4---4---9---9---10---10----10---10----9---9----2---2----2---2---2---2-|
D|-5---5---9---9---10---10----10---10----9---9----2---2--0---0-----0---0-|
A|3--3----7--7---8----8-----8----8-----7---7----0---0--------------3---3-|
E|---------------------------------------------------------------0---0---|

Riff 3
e|------------------------------------------------------------3|
B|--1---1------------10---10----9----9-----8---8--------------3|
G|--2---2---4---4----10---10----10---10----9---9--------------0|
D|--2---2---5---5----10---10----10---10----9---9----------2-2-2|
A|0---0----3--3----8----8-----8----8-----7---7------0-2-3--3--3|
E|------------------------------------------------3------------|

Chorus
C - Em - Fmaj7 - Am+7 - Em (Am - Dm - E7)
Keep holding on (keep holding on)

Am - Em - F - Fm - Em - G - C
Keep holding on

Verse from riff 2
Chorus
Verse from riff 2
Verse from riff 2

Bridge
Am - Em - Fmaj7 - Fmmaj7

End
e|---------------------------------------------------------3---3---------|
B|---------8---8---10---10----9----9-----8---8----1---1----1---1---------|
G|-4---4---9---9---10---10----10---10----9---9----2---2----2---2---2---2-|
D|-5---5---9---9---10---10----10---10----9---9----2---2--0---0-----0---0-|
A|3--3----7--7---8----8-----8----8-----7---7----0---0--------------3---3-|
E|---------------------------------------------------------------0---0---|

e|-0--7--8--8--7----------|
B|-1--8--10-9--8----------|
G|-2--9--10-10-9----------|
D|-2--9--10-10-9----------|
A|-0--7--8--8--7-----0-2-3|
E|-0--7--8--8--7---3------|
Tap to rate this tab
# A B C D E F G H I J K L M N O P Q R S T U V W X Y Z