Song name
# A B C D E F G H I J K L M N O P Q R S T U V W X Y Z

Clara Van Wel - Where Do You Find Love chords

Highlighted       Show chord diagrams
'WHERE DO YOU FIND LOVE?'
Written & performed by New Zealand's Got Talent Winner 2013 Clara van Wel
Tabbed by Gabby King
https://itunes.apple.com/nz/artist/clara-van-wel/id583735761

Everything is correct except the second part of the intro. 
I would've had to transpose everything and it would've gotten 
messy, but the way I've tabbed sounds pretty legit anyway.




CAPO 7            Start of second half of intro
              (not matched perfectly with the song)
Intro:                       ↓
e|-------------------------------------------------------|
B|---------------0----------------------2----------------|
G|--------0--2------0----------------2-------------------| (x2)
D|-----2---------------2----------2----------------------|
A|--2---------------------2----0-------------------------|
E|-------------------------------------------------------|
                             ↑  

Em                           A
  I suppose what I'm really asking
                    Em       A
Is where do you find love?
Em                              A
  I heard that it's quite a task
                    Em       A
Now where do you find love?
Em                        A
  Some say that it's a mission
              Em         A
Where do you find love?
Em                     A
  Do we leave it to ambition
              Em    B
Where do you find love?


        G
And I wonder in a world so mundane
          D
Can you find love
         G
And I wonder in a world just the same
         C
Can you find love?


G      
 And I suppose what I'm really hoping
                    A
Is that he's gonna sweep me off my feet
                  C
But where do you find love?
                A     B
Where do you fi-i-i-i-i-ind?


Em
Where do you find
                 A
Where do you find love?
Em
Where do you find
                 A
Where do you find love?
Em
Where do you find
                    A   B
Where do you find lo-o-o-o-ve?


G      
 And I suppose what I'm really hoping
                    A
Is that he's gonna sweep me off my feet
                  C
But where do you find love?
                A     B
Where do you fi-i-i-i-i-ind
(play tab below for the next line; or alternatively play Em, A, Em.)
Lo-o-o-o-o-o-ove?

e|-------------------------------------------------------|
B|---------------0----------------------2----------------|
G|--------0--2------0----------------2-------------------| 
D|-----2---------------2----------2----------------------|
A|--2---------------------2----0-------------------------|
E|-------------------------------------------------------|

e|--------------------------------|
B|--------------------------------|
G|--------0-----------------------| 
D|-----2-----2---4----------------|
A|--2-----------------------------|
E|--------------------------------|

Tap to rate this tab
 
# A B C D E F G H I J K L M N O P Q R S T U V W X Y Z