Guitaretab - guitar tabs
Song name
# A B C D E F G H I J K L M N O P Q R S T U V W X Y Z

Clare Bowditch And The Feeding Set - This Bastard Disease tab

----------------------------------------------------------------------------
          THIS BASTARD DISEASE - Clare Bowditch And The Feeding Set
----------------------------------------------------------------------------
Tabbed by: illy93
Tuning: Standard

Heyy, this song is short and very easy. Just three riffs in the whole song. Enjoy.


VERSE RIFF:
e|------------------------------------------------------------------------|
B|------------------------------------------------------------------------|
G|--0-0-0-0-0-0-0-0----0-0-0-0-0-0-0-0--0-0-0-0-0-0-0-0--0-0-0-0-0-0-0-0--|
D|------------------------------------------------------------------------|
A|------------------------------------------------------------------------|
E|-0-0-0-0-0-0-0-0--1/3-3-3-3-3-3-3-3--1-1-1-1-1-1-1-1--0-0-0-0-0-0-0-0---|

[ Tab from: http://www.guitaretab.com/c/clare-bowditch-and-the-feeding-set/105228.html ]
CHORUS RIFF:
e|-------------------------------------------------------------------------|
B|-------------------------------------------------------------------------|
G|----0-0-0-0-0-0-0-0--0-0-0-0-0-0-0-0----0-0-0-0-0-0-0-0--0-0-0-0-0-0-0-0-|
D|-------------------------------------------------------------------------|
A|-------------------------------------------------------------------------|
E|-5/8-8-8-8-8-8-8-8--5-5-5-5-5-5-5-5--5/8-8-8-8-8-8-8-8--5-5-5-5-3-3-3-3--|


POST-CHORUS RIFF:
e|------------------------------------------------------------------------|
B|--------0---0--------------0---0------------0---0------------0---0------|
G|--0-0-0---0---0-0----0-0-0---0---0-0--0-0-0---0---0-0--0-0-0---0---0-0--|
D|------------------------------------------------------------------------|
A|------------------------------------------------------------------------|
E|-0-0-0-0-0-0-0-0--1/3-3-3-3-3-3-3-3--1-1-1-1-1-1-1-1--0-0-0-0-0-0-0-0---|


STRUCTURE:
VERSE RIFF (x4)
CHORUS RIFF
POST-CHORUS RIFF
VERSE RIFF (x3)
CHORUS RIFF
POST-CHORUS RIFF


KEY:
/ = slide up

============================================================================
Related for This Bastard Disease tab
This Bastard Disease chords by Clare Bowditch And The Feeding Set