Song name
# A B C D E F G H I J K L M N O P Q R S T U V W X Y Z

Clarence Wijewardena - Malata Babareku Se tab

1-2-0---2-0---2-0------2-5--|
2-----3-----3-----3--3------|
3---------------------------|
4---------------------------|
5---------------------------|
6---------------------------|

1--7-5-3-7-5-3--3-7-9--10-9-7-10-9-7-10p-9p------------|
2------------------------------------------------------|
3------------------------------------------------------|
4------------------------------------------------------|
5------------------------------------------------------|
6------------------------------------------------------|

1-9-7-5------------------------------------------------|
2-------8-7-5-3-2-3p-----------------------------------|
3------------------------------------------------------|
4------------------------------------------------------|
5------------------------------------------------------|
6------------------------------------------------------|
Tap to rate this tab
# A B C D E F G H I J K L M N O P Q R S T U V W X Y Z