Song name
# A B C D E F G H I J K L M N O P Q R S T U V W X Y Z

Clarice Falcao - Eu Nao Gosto De Meninos tab

           A
E|---------------------|
B|-------2-------2-----|
G|-------2-------2-----|
D|-----2---2---2---2---|
A|---0-------0---------|
E|---------------------|



           D
E|-------2-------2-----|
B|-------3-------3-----|
G|-----2---2---2---2---|
D|---0-------0---------|
A|---------------------|
E|---------------------|



           E
E|---------------------|
B|-------0-------0-----|
G|-------1-------1-----|
D|-----2---2---2---2---|
A|---2-------2---------|
E|---------------------|


A               D
Eu não gosto de meninos
A              E
Não é nada com você (nem com você)
D             A
Eu prefiro as garotas
E           A (tocar apenas A corda A E deixar soar)
Vocês devem entender

Vocês também preferem

A                  D
Não adianta me dar flores
A              E
Não adianta me cantar
D               A
Eu já estou bem decidida
E                   A (tocar o acorde normalmente)
É melhor deixar pra lá
Tap to rate this tab
# A B C D E F G H I J K L M N O P Q R S T U V W X Y Z