Song name
# A B C D E F G H I J K L M N O P Q R S T U V W X Y Z

Clarks - On Saturday tab

On Saturday by the Clarks -Guitar Tab
Tabbed By JRCillo
This is my first tab so please bare with me!!Its Redone I screwed up at first!!
Standard Tuning: EADGBe
Intro x2
|-------------------------------------------|
|-----------5/7--5-x-5-5-x-5--3-------------|
|-----------4/6--4-x-4-4-x-4--2-------------|
|-------2---------------------0-------------|
|--2/4----4---------------------------------|
|-------------------------------------------|

Verse  1: Goes in order Parts 1,1,2,3,2,1,2,1,2,1
Part 1(between lyrics)
|-------------------------------|
|--6/8--6----------5/7-5--------|
|--5/7--5----------4/6-4--------|
|-------------------------------|
|-------------------------------|
|-------------------------------|
Part 2 (over lyrics)
|-------------|
|--------5----|
|--4/6--------|
|-------------|
|-------------|
|-------------|
Part 3 (also between lyrics and used with Wah effect)
|---------------------------------|
|-5/7--5-x-5-5-x-5--3-------------|
|-4/6--4-x-4-4-x-4--2-------------|
|-------------------0-------------|
|---------------------------------|
|---------------------------------|


Pre-Chorus:
|-------------------------------------|
|-------5--------7---------10~~-------|
|--4/6------6/8------8/10-------------|
|-------------------------------------|
|-------------------------------------|
|-------------------------------------|

Chorus
     F#*        E*           D
|------------------------------------------|
|---7~~------5~~--------3~~------3---------|
|---6~~------4~~--------2~~----------------|
|---4~~------2~~--------0~~----------------|
|------------------------------------------|
|------------------------------------------|

After Chorus Play Verse Part 3 Once without Wah

Verse 2: Goes in order Parts 1,2,1,2,1,2

Play Pre-Chorus

Play Chorus

Bridge: Play Chords F#* E* and D (Shown in Chorus) Twice

Break Thingy: Play Between Violins Twice (2nd Time End on Bold Note!)
 |------------------------|
|--------5p3--------------|
|--3h5-------3h5p3--------|
|-------------------------|
|-------------------------|
|-------------------------|

Guitar solo kind of thing: Played over Intro
|------------------|
|------5-----9p7---|
|--5h7---7---------|
|------------------|
|------------------|
|------------------|

|-------------|
|--11-9-------|
|-------11-13-|
|-------------|
|-------------|
|-------------|

|--------------------------|
|--------------------------|
|--11h13-11h13-11h13-11h13-|
|--------------------------|
|--------------------------|
|--------------------------|

|-------------|
|-----12---10-|
|--11----9----|
|-------------|
|-------------|
|-------------|


Play Pre-chorus

Play Chorus

Play Bridge

Outro: Played over Intro

|------------------|----------|---------------------|--------|
|------------------|--7-7-9~--|-10-9-10---9-7-5-----|--------|
|-6h8-10p8h10------|----------|---------------------|-15b----|
|------------------|----------|---------------------|--------|
|------------------|----------|---------------------|--------|
|------------------|----------|---------------------|--------|
Then it fades out
Key:
h= hammer on
p= pull off
/= slide up
b= bend
x= muted strum
~= held note
Any Questions Comments or Suggestions Please email me at jcillo_13@verizon.net (that is 
underscore not a
space!!!)
Tap to rate this tab
 
# A B C D E F G H I J K L M N O P Q R S T U V W X Y Z