Song name
# A B C D E F G H I J K L M N O P Q R S T U V W X Y Z

Clarks - Happy chords

Highlighted       Show chord diagrams
Ok, first tab ever. Great song. Enjoy

Intro lead

---------------------------------------------------------------------------|
---------------------------------------------------------------------------|
--5--7p5--7/9--9p7--12/14--12--12/14--9--7-7------------ 2x----------------|
--5------------------------------------------------------------------------|
--3------------------------------------------------------------------------|
---------------------------------------------------------------------------|

Intro Chords - C  Am  F  Am  G         2x

Verse

(For all the F's start with an Fsus2 and hammer on to an F on the G string)

F               C
I'm never gonna smile

F               C         G
I'm never gonna stay for a while

F               C
I'm never gonna laugh

F             C             G
Might as well just cut me in half


Pre Chorus

Am   C     F
Just wanna run

Am   C     F
Just wanna live till I'm done

Am   C     F
Just wanna be... ya....


Chorus

   C
As happy as I'm gonna be

            Am
And there's nothing on the inside

        F
I'm not high on life, I'm not drunk on love

    G
I'm broken down not feeling right

    C
I'm happy as I'm gonna be

             Am
When there's nothing on the inside

        F
I'm not high on life, I'm not drunk on love

    G
Not feeling right


(Intro 1x)

Verse 2

I知 never gonna fight,
I think I need to make up my mind
I知 never gonna stand,
Next to you I値l do what I can

Pre Chorus 2

Just wanna run,
Just wanna lie in the sun,
Just wanna feel... ya...

Chorus

Bridge

Dm   C    G   C  G   (3x)

Part after bridge (same chords as verse)

I知 never gonna write
Lay with you or whisper goodnight
I知 never gonna call
That way I値l have nothing at all

Pre Chorus 1 again

Chorus (and repeat)

Outro (same chords as pre chorus)

----------------------------------------------------------------------------|
----------------------------------------------------------------------------|
--5-4-5/12~~~~------------------------------------------4x------------------|
----------------------------------------------------------------------------|
----------------------------------------------------------------------------|
----------------------------------------------------------------------------|
Tap to rate this tab
# A B C D E F G H I J K L M N O P Q R S T U V W X Y Z