Song name
# A B C D E F G H I J K L M N O P Q R S T U V W X Y Z

Clarks - Shimmy Low tab

Help us improve GuitareTab! Take a short survey!
Visit http://www.clarksonline.com/ for anything else clarks!

1973tour
Questions??
email --> 1973tour@gmail.com
Isnt that convenient?

Note: The Chords arent in the right places, but if you listen to the song, its not hard
to find out where they go

Shimmy Low - The Clarks

intro:
e--7-7-7h8--5-5-5h7-7--5-5-7p5-----------3---------5------|
b--8-8-8----7-7-7---7--5-5-----5-----------5---------7----|
G------------------------------------3s5-----5-5s7-----7--|
D---------------------------------------------------------|
A---------------------------------------------------------|
E---------------------------------------------------------|

G D
I've been down this road ten times
Am
I would run, I would hide
C
From the fears that ruled my mind
G D
And so I asked this guy
Am
We'll call him Oz, call him wise
C
He laughed and offered his advice


C D
Get out of your black hole
C D
Join life's circus sideshow


G D
Shimmy, shimmy low, Got to free my soul
Am C
Want to walk on water, Gonna lose control
G D
Shimmy, shimmy low, Got to free my soul
Am C
Want to walk on water, Gonna lose control

G D
I'd practice to believe
Am
Fear is real, a disease
C
And hold myself against my knees
G D
And if you lose your mind
Am
Call the sun, then unwind
C
There's too much to leave behind


C D
He said you ought to know
C D
Life's on remote control...Got to...


G D
Shimmy, shimmy low, Got to free my soul
Am C
Want to walk on water, Gonna lose control
G D
Shimmy, shimmy low, Got to free my soul
Am C
Want to walk on water, Gonna lose control


Em D C Em D
Much to my surprise, I've been so high
C D
I'll kiss the sky from this broken dream I'll rise

Solo:
* hold for a couple measures
e--10-----------10-8-7-7h8-7---------------------------------|
b--8-------------------------8-8-8----8------8-s10-10b12--8--|
G--7---------------------------9-9p7--9--7h9-----------------|
D------------------------------------------------------------|
A------------------------------------------------------------|
E------------------------------------------------------------|

G D
Shimmy, shimmy low, Got to free my soul
Am C
Want to walk on water, Gonna lose control

end on C

/*- Thanks to The Clarks Online for providing tabs -*\
Related for Shimmy Low tab