Song name
# A B C D E F G H I J K L M N O P Q R S T U V W X Y Z

Clash - One Emotion tab

Help us improve GuitareTab! Take a short survey!
Intro/Verse
E-------------------------------------|
B-------------------------------------|
G------77--55--22--55--77--44--22-----|
D--55--77--55--44--55--77--44--22--55-|
A--55--55--33--22--33--55--22--00--55-|
E--33------------------------------33-|

Pre-Chorus
E---------------------|
B---------------------|
G---------------------|
D--555--333--555--222-|
A--555--333--555--222-|
E--333--111--333--000-|

Chorus
E-------------------------------------------|
B-------------------------------------------|
G--5555--------5555--------5555--7777-------|
D--5555--5555--5555--5555--5555--7777--5555-|
A--3333--5555--3333--5555--3333--5555--5555-|
E--------3333--------3333--------------3333-|

Bridge
E---------------------------------------------|
B---------------------------------------------|
G-----2-3-4-5--77-7--8--9--11-9--3-3--22------|
D--55-2-3-4-5--77-7--8--9--11-9--3-3--22--55--|
A--55-0-1-2-3--55-5--6--7--9--7--1-1--00--55--|
E--33-------------------------------------33--|
Related for One Emotion tab