Guitaretab - guitar tabs
Song name
# A B C D E F G H I J K L M N O P Q R S T U V W X Y Z

Clash - Inoculated City tab

Artist: The Clash
Song: Inoculated City
Album: Combat Rock
Tuning:  step down

Guitar 1 Intro/Verse:
E------------------------------------------------------------------|
B------------------------------------------------------------------|
G------------------------------------------------------------------|
D-5-3-5-3-555-3-5-3-5-3-------------------------------------------|
A------------------------6-----------------------------------------|
E------------------------------------------------------------------|
[ Tab from: http://www.guitaretab.com/c/clash/113516.html ]
Guitar 2 Intro/Chorus
E------------------------------------------------------------------|
B----------------------8-8-8-6-4-8-6-4-----------------------------|
G-6/7-6-4-2--------------------------------------------------------|
D-----------4-4-2-0------------------------------------------------|
A------------------------------------------------------------------|
E------------------------------------------------------------------|

Guitar 2 during the verse:
E------------------------------------------------------------------|
B-8-6-8-6-88-8-6-8-6-8-6-------------------------------------------|
G------------------------8-----------------------------------------|
D------------------------------------------------------------------|
A------------------------------------------------------------------|
E------------------------------------------------------------------|
Related for Inoculated City tab