Song name
# A B C D E F G H I J K L M N O P Q R S T U V W X Y Z

Clash - Police On My Back tab

Help us improve GuitareTab! Take a short survey!
Intro 1

Guitar 1

e-10----10----10----10----10----10----|
b----10----10----10----10----10----10-|
g-------------------------------------|
d-------------------------------------|
a-------------------------------------|
e-------------------------------------|


Intro 2

Guitar 1

e-10----10----10----10----10----10----10----10----|
b----10----10----10----10----10----10----10----10-|
g-------------------------------------------------|
d-------------------------------------------------|
a-------------------------------------------------|
e-------------------------------------------------|

Guitar 2

e-10~---------------------3~----------------------|
b-10~---------------------3~----------------------|
g-11~---------------------4~----------------------|
d-12~---------------------5~----------------------|
a-12~---------------------5~----------------------|
e-10~---------------------3~----------------------|

make this once then start to play the

Guitar 3

e---------------------------------|
b---------------------------------|
g-7-6-7-6-7-6-7---7-6-7-6-7-6-7---|
d-------------------------------7-|
a---------------------------------|
e---------------------------------|

so make the verse another 3 times.


Verse 1

Guitar 2

e-10---10---10-x-10-x-3---3---3-x-3-x-| x 4
g-10---10---10-x-10-x-3---3---3-x-3-x-|
b-11---11---11-x-11-x-4---4---4-x-4-x-|
d-12---12---12-x-12-x-5---5---5-x-5-x-|
a-12---12---12-x-12-x-5---5---5-x-5-x-|
e-10---10---10-x-10-x-3---3---3-x-3-x-|


Pre-chorus 1

Guitar 2

e-5555555555555555-3333333333333333-| x 2
g-5555555555555555-3333333333333333-|
b-6666666666666666-4444444444444444-|
d-7777777777777777-5555555555555555-|
a-7777777777777777-5555555555555555-|
e-5555555555555555-3333333333333333-|

Guitar 1
                            
e-------------------------------------------------
g-------------------------------------------------  
b-14----14----14----14----14----14----14----14---- \
d----14----14----14----14----14----14----14----14-  \
a-------------------------------------------------   \
e-------------------------------------------------    \
                                                       x 2
e-------------------------------------------------    /
g-------------------------------------------------   /
b-12----12----12----12----12----12----12----12----  /
d----12----12----12----12----12----12----12----12- /
a-------------------------------------------------
e-------------------------------------------------


Chorus 1

Guitar 2

e-10~---------------------3~----------------------| x 4
b-10~---------------------3~----------------------|
g-11~---------------------4~----------------------|
d-12~---------------------5~----------------------|
a-12~---------------------5~----------------------|
e-10~---------------------3~----------------------|

Guitar 1

e-10----10----10----10----10----10----10----10----| x 2
b----10----10----10----10----10----10----10----10-|
g-------------------------------------------------|
d-------------------------------------------------|
a-------------------------------------------------|
e-------------------------------------------------|

then play:

e-10----10----10----10----10----10----------------|
b----10----10----10----10----10-------10-------10-|
g-------------------------------------------------|
d-------------------------------------------------|
a-------------------------------------------------|
e-------------------------------------------------|

e-10----10----10----10----10----10----10----10----|
b----10----10----10----10----10----10----10----10-|
g-------------------------------------------------|
d-------------------------------------------------|
a-------------------------------------------------|
e-------------------------------------------------|

Guitar 3

it starts to play in the third time, after the second "what have i done?"

e---------------------------------| x 2
b---------------------------------|
g-7-6-7-6-7-6-7---7-6-7-6-7-6-7---|
d-------------------------------7-|
a---------------------------------|
e---------------------------------|


repeat verse 1 and the pre-chorus


Chorus 2

Guitar 1

e-10----10----10----10----10----10----10----10----| x 7
b----10----10----10----10----10----10----10----10-|
g-------------------------------------------------|
d-------------------------------------------------|
a-------------------------------------------------|
e-------------------------------------------------|

then

e-10----10----10----10/12-10----10----10----10----|
b----10----10----10----------10----10----10----10-|
g-------------------------------------------------|
d-------------------------------------------------|
a-------------------------------------------------|
e-------------------------------------------------|

Guitar 2

it starts to play when Mick says "i'm running!"

e-------------------------------------------------| x 4
b-------------------------------------------------|
g-------------------------------------------------|
d-12~---------------------5~----------------------|
a-12~---------------------5~----------------------|
e-10~---------------------3~----------------------|

Guitar 3

it starts to play in the same time of the guitar 2

e---------------------------------| x 4
b---------------------------------|
g-7-6-7-6-7-6-7---7-6-7-6-7-6-7---|
d-------------------------------7-|
a---------------------------------|
e---------------------------------|


repeat verse 1


Pre-chorus 2

Guitar 2

e-5555555555555555-3333333333333333-|
g-5555555555555555-3333333333333333-|
b-6666666666666666-4444444444444444-|
d-7777777777777777-5555555555555555-|
a-7777777777777777-5555555555555555-|
e-5555555555555555-3333333333333333-|

then

e-5555555555555555-3~---------------|
g-5555555555555555-3~---------------|
b-6666666666666666-4~---------------|
d-7777777777777777-5~---------------|
a-7777777777777777-5~---------------|
e-5555555555555555-3~---------------|

Guitar 1

e-------------------------------------------------
g-------------------------------------------------  
b-14----14----14----14----14----14----14----14---- \
d----14----14----14----14----14----14----14----14-  \
a-------------------------------------------------   \
e-------------------------------------------------    \
                                                       x 2
e-------------------------------------------------    /
g-------------------------------------------------   /
b-12----12----12----12----12----12----12----12----  /
d----12----12----12----12----12----12----12----12- /
a-------------------------------------------------
e-------------------------------------------------

then play once again

e-------------------------------------------------
g-------------------------------------------------
b-12----12----12----12----12----12----12----12----
d----12----12----12----12----12----12----12----12-
a-------------------------------------------------
e-------------------------------------------------


Chorus 3

Guitar 1

e-10----10----10----10----10----10----10----10----| x 3
b----10----10----10----10----10----10----10----10-|
g-------------------------------------------------|
d-------------------------------------------------|
a-------------------------------------------------|
e-------------------------------------------------|

then

e-10----10----10----10/12-10----10----10----10----|
b----10----10----10----------10----10----10----10-|
g-------------------------------------------------|
d-------------------------------------------------|
a-------------------------------------------------|
e-------------------------------------------------|

Guitar 2

e-10~---------------------3~----------------------| x 4
b-10~---------------------3~----------------------|
g-11~---------------------4~----------------------|
d-12~---------------------5~----------------------|
a-12~---------------------5~----------------------|
e-10~---------------------3~----------------------|

Guitar 3

it starts to play after the second "what have I done?"

e---------------------------------| x 2
b---------------------------------|
g-7-6-7-6-7-6-7---7-6-7-6-7-6-7---|
d-------------------------------7-|
a---------------------------------|
e---------------------------------|


Final

Guitar 1

e---------------------------------| x 2
b---------------------------------|
g-7-6-7-6-7-6-7---7-6-7-6-7-6-7---|
d-------------------------------7-|
a---------------------------------|
e---------------------------------|

then

e---------------------------------| x 2
b---------------------------------|
g-7-6-7-6-7-6-7/9-7-6-7-6-7-6-7---|
d-------------------------------7-|
a---------------------------------|
e---------------------------------|

repeat all four times

Guitar 2

it starts after the last "police on my back" said by Joe

e-10----10----10----10~---10----10----10----10----|
b----10----10----10----------10----10----10----10-|
g-------------------------------------------------|\
d-------------------------------------------------| \
a-------------------------------------------------|  \
e-------------------------------------------------|   \
                                                      x 6
e-10----10----10----10/12-10----10----10----10----|   /
b----10----10----10----------10----10----10----10-|  /
g-------------------------------------------------| /
d-------------------------------------------------|/
a-------------------------------------------------|
e-------------------------------------------------|

Guitar 3

e---------------------------------| x 6
b---------------------------------|
g-7-6-7-6-7-6-7---7-6-7-6-7-6-7---|
d-------------------------------7-|
a---------------------------------|
e---------------------------------|

then

e---------------------------------| x 12
b---------------------------------|
g---------------------------------|
d-7-7-7-7-7-7-7-7-5-7-5-7-5-7-5-7-|
a---------------------------------|
e---------------------------------|

that's all :P
Related for Police On My Back tab