Song name
# A B C D E F G H I J K L M N O P Q R S T U V W X Y Z

Clash - Garageland tab

-------------------------------------------------------------------------------
			     Garageland- The Clash
-------------------------------------------------------------------------------
Tabbed by:Chordmonkey
Tuning:standard

Intro  (Play the picking part over these chords)  (x3) Then play the E      
                                                        .....
e|-------2------------------|-33-2-----------------|--0-----------|
B|-----3---3----------2-----|-22-3--22-33-2--------|--0-----------|
G|---2-------2----------2---|-22-2--22-22-2--------|--1-----------|
D|-0-----------0----2-----2-|-00-0--22-22-2--------|--2-----------|
A|----------------0---------|-------00-00-0--------|--2-22222-----|
E|--------------------------|----------------------|--0-00000-----|

Verse(x2)
e|---------------------------------------------|
B|---------------------------------------------|
G|---------------------------------------------|
D|---------7777777-9999999---------------------|
A|-7777777-5555555-7777777-7777777-------------|
E|-5555555-----------------5555555-------------|

 
Pre-chorus        ......            ........   .......
e|------4---2---0---------------4------------------------|
B|--7---5---3---2-----------7---5------------------------|
G|--7---6---4---2-----------7---6------------------------|
D|--7---6---4---2-222222----7---6---44444444---2222222---|
A|--5---4---2---0-000000----5---4---22222222---0000000---|
E|-------------------------------------------------------|

Chorus                     "Ah-ah-ah..."
e|---------00--2--000--|----------------------|
B|---------00--2--222--|----------------------|
G|---------11--2--222--|-----77--66--4444-----|
D|-22-222--22--4--222--|-----77--66--4444-----|
A|-00-000--22--4--000--|-----55--44--2222-----|
E|---------00--2-------|----------------------|

Outro (x3)
     ..........
e|--------------------------------|
B|--------------------------------|
G|--------------------------------|
D|-7------------------------------|
A|-7-7777777777--79999--79999-----|
E|-5-5555555555--57777--57777-----|

  "Back in the garage..."
e|-----------------------------------|
B|--9999999--7777777-----------------|
G|--9999999--7777777-----------------|
D|--9999999--7777777-----------------|
A|--7777777--5555555-----------------|
E|-----------------------------------|


Repeat the outro as many times as needed, then finish on 

e|--0-----|
B|--2-----|
G|--2-----|
D|--2-----|
A|--0-----|
E|--------|

Tap to rate this tab
# A B C D E F G H I J K L M N O P Q R S T U V W X Y Z