Song name
# A B C D E F G H I J K L M N O P Q R S T U V W X Y Z

Clash - Stay Free tab

-------------------------------------------------------------------------------
			     Stay free - The Clash
-------------------------------------------------------------------------------
Tabbed by:kent6494. 

OUTRO

Tuning:standard

e|------------------------------------------------------10p8-10-10b-10-------|
B||--/10-12-12-12----12-13-12\10-8-8-------/10-12-12-12----------------------|
G|---------------------------------------------------------------------------|
D|---------------------------------------------------------------------------|
A|---------------------------------------------------------------------------|
E|---------------------------------------------------------------------------|

e|--7---7---7---7h8p7----7---7---7---7h8p7---10b-10--------------------------|
B|----8---8---8------------8---8---8-----------------------------------------|
G|---------------------------------------------------------------------------|
D|---------------------------------------------------------------------------|
A|---------------------------------------------------------------------------|
E|---------------------------------------------------------------------------|

e|--10b-10------------------------------15-----------------------------------|
B|---------10-12-10b(half)-8----8h10/15--------------------------------------|
G|---------------------------------------------------------------------------|
D|---------------------------------------------------------------------------|
A|---------------------------------------------------------------------------|
E|---------------------------------------------------------------------------|


************************************

| /   slide up
| \   slide down
| h   hammer-on
| p   pull-off
| ~   vibrato
| +   harmonic
| x   Mute note
| b   Bend
| pb  Pre-bend
| br  Bend release
| pbr Pre-bend release
| brb Bend release bend

************************************
Tap to rate this tab
# A B C D E F G H I J K L M N O P Q R S T U V W X Y Z