Song name
# A B C D E F G H I J K L M N O P Q R S T U V W X Y Z

Clash - All The Young Punks tab

-----------------------------------------------------------------------------

	             All The Young Punks - The Clash
-----------------------------------------------------------------------------

Tabbed by: greendaypunkrox
Email: jjjamadori@aol.com

Tuning: Standard Tuning

(I'M JUST GUNNA TAB ALL OF THE SONG AND YOU CAN FILL IT IN FOR ALL PARTS OF THE SONG)

Intro: And Other Parts Of The Song
e|-----7-------11-------6-------6---------------------------------------------|
B|----7-7-----7--7-----7-7-----7-7-----(x2)-----------9-7---------------------|
G|---4---4---5----5---6---6---5---5------------------9------------------------|
D|--------------------------------------------------8-------------------------|
A|---------------------------------------------9-9-9--------------------------|
E|----------------------------------------------------------------------------|

e|----------------------------------------------------------------------------|
B|----------------------(Solo Lick)--------12--11v----------------------------|
G|---4-4---6-6------------------------------------11--------------------------|
D|---4-4---6-6--4--4-4-4-4-4-4-4----------------------------------------------|
A|---2-2---4-4--4--4-4-4-4-4-4-4----------------------------------------------|
E|--------------2--2-2-2-2-2-2-2----------------------------------------------|
Chorus:
e|---------------------------------------------------------------------------|
B|---------------------------------------------------------------------------|
G|--4--4-4---9--9-9----4--4-4-4-4-4-4----9--8-8--9-8--6~---------------------|
D|--4--4-4---9--9-9----4--4-4-4-4-4-4----9--8-8--9-8--6~---------------------|
A|--2--2-2---7--7-7----2--2-2-2-2-2-2----7--6-6--7-6--4~---------------------|
E|---------------------------------------------------------------------------|

e|---------------------------------------------------------------------------|
B|---------------------------------------------------------------------------|
G|--4--4-4---9--9-9----4--4-4-4-4-4-4----8--6-6--8-6--4~--(Chorus-x2)--------|
D|--4--4-4---9--9-9----4--4-4-4-4-4-4----8--6-6--8-6--4~---------------------|
A|--2--2-2---7--7-7----2--2-2-2-2-2-2----6--4-4--6-4--2~---------------------|
E|---------------------------------------------------------------------------|
Bridge: Guitar 1
e|--9----9----9----9----9----9----9----9-------------------------------------|
B|---10---10---10---10---10---10---10---10-----------------------------------|
G|-----9----9----9----9----9----9----9----9----------------------------------|
D|---------------------------------------------------------------------------|
A|---------------------------------------------------------------------------|
E|---------------------------------------------------------------------------|
Bridge: Guitar 2
e|---------------------------------------------------------------------------|
B|---------------------------------------------------------------------------|
G|--2~-----2~-----2~-----2~-----2~-----2~-----2~-----2~----------------------|
D|--2~-----2~-----2~-----2~-----2~-----2~-----2~-----2~----------------------|
A|--0~-----0~-----0~-----0~-----0~-----0~-----0~-----0~----------------------|
E|---------------------------------------------------------------------------|
                 Solo is Probably a bit off but I tried

e|---------------------------------------------------------------------------|
B|----5/-12v-12v-12v-12v-12v-12v-12v---------------12-13---------------------|
G|------------------------------------13-11---13--------9--------------------|
D|------------------------------------------13-------------------------------|
A|---------------------------------------------------------------------------|
E|---------------------------------------------------------------------------|

e|----------------------------------------------------------------------------|
B|----5/-12v-12v-12v-12v-12v-12v-12v---------------12-------------------------|
G|------------------------------------13-11---11-----13-----------------------|
D|------------------------------------------13---------14---------------------|
A|----------------------------------------------------------------------------|
E|----------------------------------------------------------------------------|

e|---------------------------------------------------------------------------|
B|---------------------------------------------------------------------------|
G|-----------9-11---11-11-11b-------11-13-11---8-8h-9-8----------------------|
D|--9/-11-13-------------------9---------------------------------------------|
A|---------------------------------------------------------------------------|
E|---------------------------------------------------------------------------|

e|---------------------------------------------------------------------------|
B|--14-14-16-12--12-14-14b---------------------------------------------------|
G|---------------------------------------------------------------------------|
D|---------------------------------------------------------------------------|
A|---------------------------------------------------------------------------|
E|---------------------------------------------------------------------------|

Well, the outro iz the same as the chorus and i hope this isn't too confusing too read.I 
my best at tabbing it and there probably iz something wrong so feel free to correct me.
|ENJOY THE BEST SONG BY THE CLASH AND VOTE.

************************************

| /   slide up
| \   slide down
| h   hammer-on
| p   pull-off
| ~   vibrato
| +   harmonic
| x   Mute note
| b   Bend
| pb  Pre-bend
| br  Bend release
| brb Bend release bend
| pbr Pre-bend release

************************************
Tap to rate this tab
 
# A B C D E F G H I J K L M N O P Q R S T U V W X Y Z