Clash - Death Or Glory tab

INTRO (quiet/acoustic): F C (repeat)
(muted)
E----------------------------------------------------------|
B----------------------------------------------------------|
G----------10-10-10-10-10-10-10-10-------------------------|
D----------10-10-10-10-10-10-10-10-10-10-10-10-10-10-10-10-|
A----------8--8--8--8--8--8--8--8--10-10-10-10-10-10-10-10-|
E----------------------------------8--8--8--8--8--8--8--8--|

(then loud/electric): F C G C F C G C
E----------------------------------------------------------|
B----------------------------------------------------------|
G----------10-10-10-10----------12-12-12-12----------------|
D----------10-10-10-10-10-10-10-12-12-12-12-10-10-10-------|
A----------8--8--8--8--10-10-10-10-10-10-10-10-10-10-------|
E----------------------8--8--8--------------8--8--8--------|

VERSE
Play this with a semitone slide like this:
    B/C           F#/G            E/F etc.
E----------------------------------------------------------|
B-----------------11/12-12-12-12--9/10-10-10-10------------|
G--8/9--9--9--9---11/12-12-12-12--9/10-10-10-10------------|
D--9/10-10-10-10--11/12-12-12-12--9/10-10-10-10------------|
A--9/10-10-10-10--9 /10-10-10-10--7/8--8--8--8-------------|
E--7/8--8--8--8--------------------------------------------|

    C                          G
Now every cheap hood strikes a bargain with the world
    F                            C         G
And ends up making payments on a sofa or a girl
C                                 G
Love and hate tattooed across the knuckles of his hands
F                                      C               G
Hands that slap his kids around 'cause they don't understand how

        F         C       G                  C
CHORUS:  Death or glory becomes just another story
        F         C       G                  C
         Death or glory becomes just another story

Now every gimmick-hungry boy digging gold from rock-n-roll
Grabs the mike to tell us he'll die before he's sold
But I believe in this and it's been tested by research
He who ***s nuns will later join the church

CHORUS

BRIDGE: (I don't remember the words for this but they're something like
this)
        G                        C
        See you in the gunsights you say hello
        I say ok don't wanna play the show
        all you are thinking 'bout is death or glory now
        playing the losers game, surely it's better now

CHORUS

In every dingy basement on every dingy street
Every dragging handclap over every dragging beat
It's just the beat of time, the beat that must go on
If you've been trying for years, we already heard your song

CHORUS

                    F       C                     F        C
(throughout)
BRIDGE: We're gonna march a long way, we're gonna travel a long time
        We're gonna travel over mountains, we're gonna travel over seas
        We're gonna fight you brother, we're gonna fight 'til you lose
        We're gonna raise trouble, we're gonna raise hell
        We're gonna fight you brother, we're gonna raise hell

CHORUS

Repeat chorus riff, end on C
Tap to rate this tab
 
# A B C D E F G H I J K L M N O P Q R S T U V W X Y Z