Song name
# A B C D E F G H I J K L M N O P Q R S T U V W X Y Z

Clash - Bankrobber tab

                             =The Clash=

                              Bankrobber

partial tab
intro/solo


---------------------------------------------|
---------------------------------------------|
---------------------------------------------|
----0----2-0---0-----------------------------|
-------------3----------------2---3-2-0-2----|
3--------------------------3-----------------|

---------------------------------------------------|
---------------------------------------------------|
---------------------------------------------------|
-----0---2-0---0--------------0--------------------|
-------------3-------------3-----------------------|
3--------------------------------3--3-3-3-3--------|

---------------------------------------------|
---------------------------------------------|
---------------------------------------------|
----0----2-0---0-----------------------------|
-------------3----------------2---3-2-0-2----|
3--------------------------3-----------------|

---------------------------------------------------|
---------------------------------------------------|
---------------------------------------------------|
-----0---2-0---0--------------0--------------------|
-------------3-------------3-----------------------|
3--------------------------------3--3-3-3-3--------|
Tap to rate this tab
# A B C D E F G H I J K L M N O P Q R S T U V W X Y Z