Song name
# A B C D E F G H I J K L M N O P Q R S T U V W X Y Z

Clash - Clash City Rockers tab

intro
guitar 1 rythym 1
e-----------------------------------------------------------------|
b-----------------------------------------------------------------|
g---10--8-8------------------------------10-10--------------------|
d---10--8-8---8---6-6---10---8-8----10---10-10-10-----------------|
a---8---6-6---8---6-6---10---8-8----10---8--8--10-----------------|
e-------------6---4-4---8----6-6----8----------8------------------|


see the rate they come....
guitar 2 with guitar 1 doing rythym 1
--
e----------------------------------------------------------------------|
b----------------------------------------------------------------------|
g----------------------------------------------------------------------|
d----------7---10------------------------------------------------------|
a--3/8-------------6--6-6-6--5-5-5-5--3-3-3------------7-10------------|
e---------------------------------------------3/-8-8--------6-6-6-6----|

e----------------------------------------------------------------------|
b----------------------------------------------------------------------|
g----------------------------------------------------------------------|
d----------------------------------------------------------------------|
a---------7-8----------------------------------------------------------|
e---8-8----------------------------------------------------------------|
Tap to rate this tab
# A B C D E F G H I J K L M N O P Q R S T U V W X Y Z