Song name
# A B C D E F G H I J K L M N O P Q R S T U V W X Y Z

Clash - White Man In Hammersmith Palais tab

Intro

1st guitar (Joe)

E------------------------------------------------------|
B------------------------------------------------------|
G-----------9-9-9-9~-----------------------------------|
D-7-7-7-7~--9-9-9-9~--5-5-5-5~--7-7-7-7~--5-5-5-5~--7~-|
A-7-7-7-7~--7-7-7-7~--5-5-5-5~--7-7-7-7~--5-5-5-5~--7~-|
E-5-5-5-5~------------3-3-3-3~--5-5-5-5~--3-3-3-3~--5~-|

2nd guitar (Mick)

in the same time of the 1st guitar

E-----------------------------------------------------|
B-----------------------------------------------------|
G-----------9-9-9-9~--11/12-12--12--12--1212----------|
D-7-7-7-7~--9-9-9-9~--11/12-12--12--12--1212----------|
A-7-7-7-7~--7-7-7-7~---9/10-10--10--10--1010----------|
E-5-5-5-5~--------------------------------------------|

E-----------------------------------------------------|
B-----------------------------------------------------|
G-12/13-14--14--14--14---12--16~-14-12-12-12-12/14~---|
D-12/13-14--14--14--14---12---------------------------|
A-10/11-12--12--12--12---10---------------------------|
E-----------------------------------------------------|


1st verse

1st guitar (Joe)

E---|
B---|
G---|
D-6-|
A-6-|
E-4-|

E------------------------ x2 then E------------------------|
B------------------------         B------------------------|
G-------9--9--6--6--7--7-         G-------9--9--11-11-7----|
D-7--7--9--9--6--6--7--7-         D-7--7--9--9--11-11-7--6-|
A-7--7--7--7--4--4--5--5-         A-7--7--7--7-- 9- 9-5--6-|
E-5--5-------------------         E-5--5-----------------4-|

then

E------------------------|
B------------------------|
G-------9--9-------------|
D-7--7--9--9--7--7--7--6-|
A-7--7--7--7--7--7--7--6-|
E-5--5--------5--5--5--4-|

for the first time the verse is played only by joe, then from the twice mick starts to 
this:

2nd guitar (Mick)

E----------------------------------------|
B----------------------------------------|
G-14~-----------------14~----------------|
D------14~--11~--12~-------14~--11~------|
A------------------------------------12~-|
E----------------------------------------|

E---------------------------------------|
B---------------------------------------|
G-14~-----------------14~---------------|
D------14~--16~--12~-------14~--11~-----|
A---------------------------------------|
E---------------------------------------|

remember that at the end of the verse Joe doesn't end the chord, in this way:

E--------------|
B--------------|
G-------9--9---|
D-7--7--9--9-7-|
A-7--7--7--7-7-|
E-5--5-------5-|

Chorus (same as intro but with a different final)

1st guitar (Joe)

E----------------------------------------------------------------|
B----------------------------------------------------------------|
G-----------9-9-9-9~---------------------------------------------|
D-7-7-7-7~--9-9-9-9~--5-5-5-5~--7-7-7-7~--5-5-5-5~--7-7-7-7~--5~-|
A-7-7-7-7~--7-7-7-7~--5-5-5-5~--7-7-7-7~--5-5-5-5~--7-7-7-7~--5~-|
E-5-5-5-5~------------3-3-3-3~--5-5-5-5~--3-3-3-3~--5-5-5-5~--3~-|

2nd guitar (Mick)

in the same time of the 1st guitar

E-----------------------------------------------------|
B-----------------------------------------------------|
G-----------9-9-9-9~--11/12-12--12--12--1212----------|
D-7-7-7-7~--9-9-9-9~--11/12-12--12--12--1212----------|
A-7-7-7-7~--7-7-7-7~-- 9/10-10--10--10--1010----------|
E-5-5-5-5~--------------------------------------------|

E-----------------------------------------------------|
B-----------------------------------------------------|
G-12/13-14--14--14--14---12--16~-14-12-12-12-12/14~---|
D-12/13-14--14--14--14---12---------------------------|
A-10/11-12--12--12--12---10---------------------------|
E-----------------------------------------------------|

E-----
B-----
G-12~-
D-----
A-----
E-----


then

1st guitar

E----------------------------------------|
B----------------------------------------|
G----------------------------------------|
D-77777-----677777-----677777-----677777-|
A-77777-----677777-----677777-----677777-|
E-55555-----455555-----455555-----455555-|

2nd guitar

E-- 9 9 9 9 9-- 9 9 9 9 9-- 9 9 9 9 9-- 9 9 9 9 9---|
B--1010101010--1010101010--1010101010--1010101010---|
G-- 9 9 9 9 9-- 9 9 9 9 9-- 9 9 9 9 9-- 9 9 9 9 9---|
D---------------------------------------------------|
A---------------------------------------------------|
E---------------------------------------------------|


2nd verse

1st guitar

E---|
B---|
G---|
D-6-|
A-6-|
E-4-|

E--------------------------------------------------------------------------|
B--------------------------------------------------------------------------|
G-------9--9--6--6--7-----------9--9--6--6--7--7--------9--9--11--11--7----|
D-7--7--9--9--6--6--7--6--7--7--9--9--6--6--7--7--7--7--9--9--11--11--7--6-|
A-7--7--7--7--4--4--5--6--7--7--7--7--4--4--5--5--7--7--7--7-- 9-- 9--5--6-|
E-5--5-----------------4--5--5--------------------5--5-------------------4-|

E------------------------|
B------------------------|
G-------9--9-------------|
D-7--7--9--9--7--7--7--6-|
A-7--7--7--7--7--7--7--6-|
E-5--5--------5--5--5--4-|

E--------------------------------------------------------------------------|
B--------------------------------------------------------------------------|
G-------9--9--6--6--7--7--------9--9--6--6--7--7--------9--9--11--11--7----|
D-7--7--9--9--6--6--7--7--7--7--9--9--6--6--7--7--7--7--9--9--11--11--7--6-|
A-7--7--7--7--4--4--5--5--7--7--7--7--4--4--5--5--7--7--7--7-- 9-- 9--5--6-|
E-5--5--------------------5--5--------------------5--5-------------------4-|

E------------------------|
B------------------------|
G-------9--9-------------|
D-7--7--9--9--7--7--7--6-|
A-7--7--7--7--7--7--7--6-|
E-5--5--------5--5--5--4-|

2nd guitar

same as the 1st verse, except that now mick starts to play at beginning of the verse.

After "the british army is waiting out there an' it weighs fifteen hundred tons" he 
this:

E------------|
B------------|
G------------|
D---------7~-|
A-4/5-7-9----|
E------------|


Break with Harmonica

1st guitar

E--------------------------------------------------------------------------|
B--------------------------------------------------------------------------|
G-------9--9--6--6--7--7--------9--9--6--6--7--7--------9--9--11--11--7--7-|
D-7--7--9--9--6--6--7--7--7--7--9--9--6--6--7--7--7--7--9--9--11--11--7--7-|
A-7--7--7--7--4--4--5--5--7--7--7--7--4--4--5--5--7--7--7--7-- 9-- 9--5--5-|
E-5--5--------------------5--5--------------------5--5---------------------|

E------------------------|
B------------------------|
G-------9--9-------------|
D-7--7--9--9--7--7--7--6-|
A-7--7--7--7--7--7--7--6-|
E-5--5--------5--5--5--4-|

during the harmonica Mick stops to play.


Last verse

E--------------------------------------------------------------------------|
B--------------------------------------------------------------------------|
G-------9--9--6--6--7--7--------9--9--6--6--7-----------9--9--11--11--7--7-|
D-7--7--9--9--6--6--7--7--7--7--9--9--6--6--7--6--7--7--9--9--11--11--7--7-|
A-7--7--7--7--4--4--5--5--7--7--7--7--4--4--5--6--7--7--7--7-- 9-- 9--5--5-|
E-5--5--------------------5--5-----------------4--5--5---------------------|

E------------------------|
B------------------------|
G-------9--9-------------|
D-7--7--9--9--7--7--7--6-|
A-7--7--7--7--7--7--7--6-|
E-5--5--------5--5--5--4-|

E--------------------------------------------------------------------------|
B--------------------------------------------------------------------------|
G-------9--9--6--6--7--7--------9--9--6--6--7--7--------9--9--11--11--7--7-|
D-7--7--9--9--6--6--7--7--7--7--9--9--6--6--7--7--7--7--9--9--11--11--7--7-|
A-7--7--7--7--4--4--5--5--7--7--7--7--4--4--5--5--7--7--7--7-- 9-- 9--5--5-|
E-5--5--------------------5--5--------------------5--5---------------------|

E---------------------|
B---------------------|
G-------9--9----------|
D-7--7--9--9--7--7--7-|
A-7--7--7--7--7--7--7-|
E-5--5--------5--5--5-|

2nd guitar

same as verse 2... except that after "they're all too busy fighting for a good place 
the lighting" he makes this:

E------------|
B------------|
G------------|
D---------7~-|
A-4/5-7-9----|
E------------|


Final

E--------------------- x2 then E-------------------------|
B---------------------         B-------------------------|
G------9999-6666-7777-         G------9999-11111111-7777-|
D-7777-9999-6666-7777-         D-7777-9999-11111111-7777-|
A-7777-7777-4444-5555-         A-7777-7777- 9 9 9 9-5555-|
E-5555----------------         E-5555--------------------|

then

E---------------------|
B---------------------|
G------9999-----------|
D-7777-9999-7777-7777-|
A-7777-7777-7777-7777-|
E-5555------5555-5555-|

the song ends with:

E-------------------|
B-------------------|
G-----------9-------|
D-77777-----9-77777-|
A-77777-----7-77777-|
E-55555-------55555-|

     9
     9
(the 7 chord is played only by joe)

I've updated this tab, I think it's perfect except that I've still missed the arpeggi 
Mick does in the final. They will come soon.
Tap to rate this tab
# A B C D E F G H I J K L M N O P Q R S T U V W X Y Z