Song name
# A B C D E F G H I J K L M N O P Q R S T U V W X Y Z

Clash - Should I Stay Or Should I Go tab

Song: Should I Stay Or Should I Go?
Artist: The Clash
Tabbed by: J
Standard Tuning

Intro
                
E|-2-2-2--3-3-3-3--2-------------|
B|-3-3-3--3-3-3-3--3-------------|
G|-2-2-2--0-0-0-0--2----x---x---x|
D|--------0-0-0-0------x---x---x-|
A|--------2-2-2-2-----x---x---x--|
E|--------3-3-3-3----x---x---x---|
*Note: For the muted strings, rake them somewhat fast, but not fast enough to be a strum


|-2-2-2--3-3-3-3--2--5h8-|
|-3-3-3--3-3-3-3--3------|
|-2-2-2--0-0-0-0--2------|
|--------0-0-0-0---------|
|--------2-2-2-2---------|
|--------3-3-3-3---------|


Main Riff-
|-2-2-2--3-3-3-3--2-|
|-3-3-3--3-3-3-3--3-|
|-2-2-2--0-0-0-0--2-| x2
|--------0-0-0-0----|
|--------2-2-2-2----|
|--------3-3-3-3----|


Verse 1

|-2-2-2--3-3-3-3--2-|
|-3-3-3--3-3-3-3--3-|
|-2-2-2--0-0-0-0--2-| x2
|--------0-0-0-0----|
|--------2-2-2-2----|
|--------3-3-3-3----|

Riff 2-

|-3-3--1-1-1-1-1--3-|
|-3-3--1-1-1-1-1--3-|
|-0-0--2-2-2-2-2--0-|
|-0-0--3-3-3-3-3--0-|
|-2-2--3-3-3-3-3--2-|
|-3-3--1-1-1-1-1--3-|


|-2-2-2--3-3-3-3--2-|
|-3-3-3--3-3-3-3--3-|
|-2-2-2--0-0-0-0--2-| 
|--------0-0-0-0----|
|--------2-2-2-2----|
|--------3-3-3-3----|


Riff 3-

|-0-0-0-0-0-0-0--3-|
|-2-2-2-2-2-2-2--3-|
|-2-2-2-2-2-2-2--0-|
|-2-2-2-2-2-2-2--0-|
|-0-0-0-0-0-0-0--2-|
|----------------3-|


|-2-2-2--3-3-3-3--2-|
|-3-3-3--3-3-3-3--3-|
|-2-2-2--0-0-0-0--2-| 
|--------0-0-0-0----|
|--------2-2-2-2----|
|--------3-3-3-3----|


Verse 2

Main Riff x2
Riff 2 x1
Main Riff x1
Riff 3 x1
Main Riff x1


Chours

|-2-2--2-2--3-3--3-3--2-2--2-2--2-2--2-2-|
|-3-3--3-3--3-3--3-3--3-3--3-3--3-3--3-3-|
|-2-2--2-3--0-0--0-0--2-2--2-2--2-2--2-2-| x2
|-----------0-0--0-0---------------------| 
|-----------2-2--2-2---------------------|
|-----------3-3--3-3---------------------|

|-3-3--3-3--1-1--1-1--3-3--3-3--3-3--3-3-|
|-3-3--3-3--1-1--1-1--3-3--3-3--3-3--3-3-|
|-0-0--0-0--2-2--2-2--0-0--0-0--0-0--0-0-|
|-0-0--0-0--3-3--3-3--0-0--0-0--0-0--0-0-|   
|-2-2--2-2--3-3--3-3--2-2--2-2--2-2--2-2-| 
|-3-3--3-3--1-1--1-1--3-3--3-3--3-3--3-3-|

|-2-2--2-2--3-3--3-3--2-2--2-2--2-2--2-2-|
|-3-3--3-3--3-3--3-3--3-3--3-3--3-3--3-3-|
|-2-2--2-3--0-0--0-0--2-2--2-2--2-2--2-2-| 
|-----------0-0--0-0---------------------| 
|-----------2-2--2-2---------------------|
|-----------3-3--3-3---------------------|


|-0-0--0-0--0-0--0-0-|
|-2-2--2-2--2-2--2-2-|
|-2-2--2-2--2-2--2-2-|
|-2-2--2-2--2-2--2-2-|
|-0-0--0-0--0-0--0-0-|
|--------------------|


Verse 3

|-3--2-2--3-3-3-3--2-|
|-3--3-3--3-3-3-3--3-|
|-0--2-2--0-0-0-0--2-|
|-0-------0-0-0-0----|
|-2-------2-2-2-2----|
|-3-------3-3-3-3----|

Main Riff x1
Riff 2 x1
Main Riff x1
Riff 3 x1
Main Riff x1


Instrumental

Main Riff x2
Riff 2 x1
Main Riff x1
Riff 3 x1
Main Riff x1


Chorus

|-2-2--2-2--3-3--3-3--2-2--2-2--2-2--2-2-|
|-3-3--3-3--3-3--3-3--3-3--3-3--3-3--3-3-|
|-2-2--2-3--0-0--0-0--2-2--2-2--2-2--2-2-| x2
|-----------0-0--0-0---------------------| 
|-----------2-2--2-2---------------------|
|-----------3-3--3-3---------------------|

|-3-3--3-3--1-1--1-1--3-3--3-3--3-3--3-3-|
|-3-3--3-3--1-1--1-1--3-3--3-3--3-3--3-3-|
|-0-0--0-0--2-2--2-2--0-0--0-0--0-0--0-0-|
|-0-0--0-0--3-3--3-3--0-0--0-0--0-0--0-0-|   
|-2-2--2-2--3-3--3-3--2-2--2-2--2-2--2-2-| 
|-3-3--3-3--1-1--1-1--3-3--3-3--3-3--3-3-|

|-2-2--2-2--3-3--3-3--2-2--2-2--2-2--2-2-|
|-3-3--3-3--3-3--3-3--3-3--3-3--3-3--3-3-|
|-2-2--2-3--0-0--0-0--2-2--2-2--2-2--2-2-| 
|-----------0-0--0-0---------------------| 
|-----------2-2--2-2---------------------|
|-----------3-3--3-3---------------------|


|-0-0--0-0--0-0--0-0--3-3--3-3--3-3--3-3-|
|-2-2--2-2--2-2--2-2--3-3--3-3--3-3--3-3-|
|-2-2--2-2--2-2--2-2--0-0--0-0--0-0--0-0-|
|-2-2--2-2--2-2--2-2--0-0--0-0--0-0--0-0-|
|-0-0--0-0--0-0--0-0--2-2--2-2--2-2--2-2-|
|---------------------3-3--3-3--3-3--3-3-|


Repeat first 3 lines, then play:

|-0-0--0-0--0-0--0-0--3-|
|-2-2--2-2--2-2--2-2--3-|
|-2-2--2-2--2-2--2-2--0-|
|-2-2--2-2--2-2--2-2--0-|
|-0-0--0-0--0-0--0-0--2-|
|---------------------3-|


|-2-2-2--3-3-3-3--2-|
|-3-3-3--3-3-3-3--3-|
|-2-2-2--0-0-0-0--2-| 
|--------0-0-0-0----|
|--------2-2-2-2----|
|--------3-3-3-3----|
Tap to rate this tab
# A B C D E F G H I J K L M N O P Q R S T U V W X Y Z