Song name
# A B C D E F G H I J K L M N O P Q R S T U V W X Y Z

Clash - English Civil War tab

-------------------------------------------------------------------------------
			     English Civil War- The Clash
-------------------------------------------------------------------------------
Tabbed by:Chordmonkey
Tuning: standard

Intro
  A5 pm............................
e|-----------------------------------|
B|-----------------------------------|
G|-----------------------------------|
D|-222222222222222222222222222222222-|
A|-000000000000000000000000000000000-|
E|-----------------------------------|

Verse
  A5            G5                   A5            E5
e|---------------------------------|---------------------------------|
B|---------------------------------|---------------------------------|
G|-22424-22424---------------------|-22424-22424---------------------|
D|-22424-22424--5-x-5--5-x-55------|-22424-22424---2-x-2--2-x-22-----|
A|-00000-00000--5-x-5--5-x-55------|-00000-00000---2-x-2--2-x-22-----|
E|--------------3-x-3--3-x-33------|---------------0-x-0--0-x-00-----|

   C5       G5         F5       C5              A5 G5 F5 E5 A5
e|-----------------------------------------------------------------|
B|-----------------------------------------------------------------|
G|-5555555----------------------55555555555555---2----------22222--|
D|-5555555--5555555----3333333--55555555555555---2--5--3--2-22222--|
A|-3333333--5555555----3333333--33333333333333---0--5--3--2-00000--|
E|----------3333333----1111111----------------------3--1--0--------|


This is the last part of the solo which you can recognise easily. The first part of the 
you could just improvise around the 12-15th frets

e|-------------------------12--12-12--------------------------|
B|----------------------15-----12-13-12-----------------------|
G|-14b-12-14-12--14b-12--------------12--14--14b-14b-12-14----|
D|------------------------------------------------------------|
A|------------------------------------------------------------|
E|------------------------------------------------------------|
Tap to rate this tab
# A B C D E F G H I J K L M N O P Q R S T U V W X Y Z