Guitaretab - guitar tabs
Song name
# A B C D E F G H I J K L M N O P Q R S T U V W X Y Z

Clash - Card Cheat tab

Main Riff
E-------------------------------------------------------|
B-------------------------------------------------------|
G---5-5-5-5-5-5--7--5-----------------------------------|
D---5-5-5-5-5-5--7--5-----------------------------------|
A---3-3-3-3-3-3--5--3-----------------------------------|
E-------------------------------------------------------|
[ Tab from: http://www.guitaretab.com/c/clash/53888.html ]
"..he only wanted more time.."
E----------------------------------------------------------|
B----------------------------------------------------------|
G--10-10-10-10-10-10-10-9--7-------5-5-5-5-5-5-5-5-2--2----|
D--10-10-10-10-10-10-10-9--7-------5-5-5-5-5-5-5-5-4--2----|
A--8--8--8--8--8--8--8--7--5-------3-3-3-3-3-3-3-3-2--0----|
E----------------------------------------------------------|

E----------------------------------------------------------|
B----------------------------------------------------------|
G-------------------------10-9--7--------------------------|
D--5-5-5-5-5-5-5-5-5-5-5--10-9--7-5------------------------|
A--5-5-5-5-5-5-5-5-5-5-5--8--7--5-5------------------------|
E--3-3-3-3-3-3-3-3-3-3-3----------3------------------------|
Related for Card Cheat tab
Advertisement will be closed in 10 seconds