Song name
# A B C D E F G H I J K L M N O P Q R S T U V W X Y Z

Clash - Ghetto Defendant tab

Help us improve GuitareTab! Take a short survey!
GHETTO DEFENDANT

 intro/verse
|-------------------------------|
|--5-5----5-5----6-8------------|
|-------------------------------|
|-------------------------------|
|-------------------------------|
|-------------------------------|

 Chorus 

|---------------------------------------|
|---------------------------------------|
|---------------0--------7---9----------|
|--------------2--------7---9-----------|
|0-3-2-0-0--0-3---0-0--5---7---3-2-0----|
|---------------------------------------|


thats pretty much it 
the chorus may need to be palm muted
for any corrections my email is place_name_here12@yahoo.com
my e-mail is also my yahoo IM


                  


Related for Ghetto Defendant tab