Guitaretab - guitar tabs
Song name
# A B C D E F G H I J K L M N O P Q R S T U V W X Y Z

Clash - Know Your Rights tab

The Clash  Know Your Rights
Credit  Strummer/Jones
Tabbed by  akaDan (akadansmith@gmail.com)
Tuning  E Standard


Intro:

Muted (not palm muted)

e|---4---|
B|---4---|
G|---4---|  Repeat this G#m throughout the intro.
D|---6---|
A|---6---|
E|---4---|


Verse:

e|---7--6--4---|
B|---7--6--4---|
G|---7--6--4---|  Continue playing the G#m off-beat.  
D|---9--8--6---|
A|---9--8--6---|
E|---7--6--4---|


Chorus:

e|---4--2--0-----2-----|
B|---4--2--0-----2-----|
G|---4--2--0-----2-----|  Return to verse.
D|---6--4--2-----4-----|
A|---6--4--2-----4-----|
E|---4--2--0-----2-----|


Solo:

e|----------------------------------|
B|----------------------------------|
G|---------8--8--8--11--8--8--8----8|  x2
D|---6--9---------------------------|
A|----------------------------------|
E|----------------------------------|
[ Tab from: http://www.guitaretab.com/c/clash/76862.html ]
e|------------------------------------|
B|------------------------------------|
G|---------8--8--8--11--13--13--8----8|
D|---6--9-----------------------------|
A|------------------------------------|
E|------------------------------------|

e|-----------------------------------------|
B|-----------------------------------------|
G|---------8--8--8--6--4----------------9--| Back to verse.
D|---6--9-----------------6-------6--9-----|
A|-----------------------------------------|
E|-----------------------------------------|


Outro:


e|-------------------------------|
B|-------------------------------|
G|-------------------------------| 
D|-------------------------------|
A|2-1-2-1-2-1-2-1-2-1-2-1-2-1----|
E|----------------------------4-4|

e|-------------------------------|
B|-------------------------------|
G|4-3-4-3-4-3-4-3-4-3-4-3-4-3----| 
D|----------------------------6-6|
A|-------------------------------|
E|-------------------------------|


E-mail requests/comments/corrections to - akadansmith@gmail.com
Related for Know Your Rights tab