Song name
# A B C D E F G H I J K L M N O P Q R S T U V W X Y Z

Clash - Capital Radio tab

The Clash – Capital Radio
Credit – Strummer/Jones
Tabbed by – akaDan (akadansmith@gmail.com)
Tuning – E Standard



"Yes, it’s time for..." / "There’s a tower..."

e|------------------------|
B|------------------------|
G|---9-9-------9-9--------|
D|---9-9--9-9--9-9--7-7---| 
A|---7-7--9-9--7-7--7-7---|
E|--------7-7-------5-5---|


"The Dr. Gobbles..." / "They don’t make..."

e|------------------------|
B|------------------------|
G|---9-9-------9-9--6-6---|
D|---9-9--9-9--9-9--6-6---| 
A|---7-7--9-9--7-7--4-4---|
E|--------7-7-------------|


"...show!" / "They're making all..."

e|------------------------|
B|------------------------|
G|------------------------|
D|----7-7-7-7--9-9-9-9----|
A|----7-7-7-7--9-9-9-9----|
E|----5-5-5-5--7-7-7-7----|


"But now all the..." / "He picks all..."

e|------------------------|
B|------------------------|
G|-------------------9----|
D|--2--4--7----7--9--9----|
A|--2--4--7----7--9--7----|
E|--0--2--5----5--7-------|


"Capital Radio"

e|------------------------|
B|------------------------|
G|--9-9--6-6--------------|
D|--9-9--6-6--7-7--9-9----|
A|--7-7--4-4--7-7--9-9----|
E|------------5-5--7-7----|


The rest of the tabs for this song were terrible so here you go.
Requests/comments/corrections to - akadansmith@gmail.com
Tap to rate this tab
 
# A B C D E F G H I J K L M N O P Q R S T U V W X Y Z