Song name
# A B C D E F G H I J K L M N O P Q R S T U V W X Y Z

Clash - Jail Guitar Doors tab

Help us improve GuitareTab! Take a short survey!
                             Jail Guitar Doors
                      By The Clash as heard on The Clash

Tuning: Standard

  Drum Intro
e |-----|-----|-----|-----|x3 "One! Two! Three! Four!"
B |-----|-----|-----|-----|
G |-----|-----|-----|-----|
D |-----|-----|-----|-----|
A |-----|-----|-----|-----|
E |-----|-----|-----|-----|

  Intro
e |-----------|-----------|-----------|------------|
B |-----10-9--|-----------|-----10-9--|------------|
G |-9-9-----9-|-9-9-6-8-9-|-9-9-----9-|-9-9-9^(10)-|
D |-9-9-------|-9-9-------|-9-9-------|-9-9--------|
A |-7-7-------|-7-7-------|-7-7-------|-7-7--------|
E |-----------|-----------|-----------|------------|

  Verse
e |------------|--------------|--------------------|
B |------------|--------------|--------------------|
G |------------|--------------|--------------------|
D |-99-11-9-11-|--------------|--------------------|
A |-77-7--7-7--|-9-9-11-99-11-|-779-7-9-7-7-9-77-9-|
E |------------|-7-7-9--77-7--|-555-5-5-5-5-5-55-5-|

               P.M.*
e |------------|------------|--------------|
B |------------|------------|--------------|
G |------------|---*---**---|---------9----| Let ring.
D |-99-11-9-11-|-6-6-6-66-6-|-9-9-999-9----|
A |-77-7--7-7--|-6-6-6-66-6-|-9-9-999-7----|
E |------------|-4-4-4-44-4-|-7-7-777------|

  Chorus
e |-----------|-----------|-----------|------------|
B |-----10-9--|-----------|-----10-9--|------------|
G |-9-9-----9-|-9-9-6-8-9-|-9-9-----9-|-9-9-9^(10)-|
D |-9-9-------|-9-9-------|-9-9-------|-9-9--------|
A |-7-7-------|-7-7-------|-7-7-------|-7-7--------|
E |-----------|-----------|-----------|------------|

  Verse
e |------------|--------------|--------------------|
B |------------|--------------|--------------------|
G |------------|--------------|--------------------|
D |-99-11-9-11-|--------------|--------------------|
A |-77-7--7-7--|-9-9-11-99-11-|-779-7-9-7-7-9-77-9-|
E |------------|-7-7-9--77-7--|-555-5-5-5-5-5-55-5-|

               P.M.*
e |------------|------------|-----------|
B |------------|------------|-----------|
G |------------|---*---**---|---------9-|
D |-99-11-9-11-|-6-6-6-66-6-|-9-9-999-9-|
A |-77-7--7-7--|-6-6-6-66-6-|-9-9-999-7-|
E |------------|-4-4-4-44-4-|-7-7-777---|

 Chorus
e |-----------|-----------|-----------|------------|
B |-----10-9--|-----------|-----10-9--|------------|
G |-9-9-----9-|-9-9-6-8-9-|-9-9-----9-|-9-9-9^(10)-|
D |-9-9-------|-9-9-------|-9-9-------|-9-9--------|
A |-7-7-------|-7-7-------|-7-7-------|-7-7--------|
E |-----------|-----------|-----------|------------|

Solo 1

  Gtr. 1
e |-------------------|-------------------|-------------------|
B |-5-----5-----10-9--|-5-----5-----10-9--|-5-----5-----10-9--|
G |-7^(9)-7^(9)-----9-|-7^(9)-7^(9)-----9-|-7^(9)-7^(9)-----9-|
D |-------------------|-------------------|-------------------|
A |-------------------|-------------------|-------------------|
E |-------------------|-------------------|-------------------|
  |
  |Gtr. 2
e |-------------------|-------------------|-------------------|
B |-------------------|-------------------|-------------------|
G |-9-----9-----------|-9-----9-----------|-9-----9-----------|
D |-9-----9-----------|-9-----9-----------|-9-----9-----------|
A |-7-----7-----------|-7-----7-----------|-7-----7-----------|
E |-------------------|-------------------|-------------------|

  Gtr. 1
e |--------------------|
B |-5-----5----(11)10*-| *Here, just pre-bend on the tenth fret, and then
G |-7^(9)-7^(9)--------|  release it back to the tenth.
D |--------------------|
A |--------------------|
E |--------------------|
  |
  |Gtr. 2
e |-------------|
B |-------------|
G |-9-----9-----|
D |-9-----9-----|
A |-7-----7-----|
E |-------------|

  Gtr. 1
e |-12---------|--12----------|---12---------12----|
B |---12-------|----12--------|-----12---------12--|
G |------------|--------------|--------------------|
D |------------|--------------|--------------------|
A |------------|--------------|--------------------|
E |------------|--------------|--------------------|
  |
  |Gtr. 2
e |------------|--------------|--------------------|
B |------------|--------------|--------------------|
G |------------|--------------|--------------------|
D |-99-11-9-11-|--------------|--------------------|
A |-77-7--7-7--|-9-9-11-99-11-|-779-7-9-7-7-9-77-9-|
E |------------|-7-7-9--77-7--|-555-5-5-5-5-5-55-5-|

 Gtr. 1
e |-12---------|--12--------|-12-----------|
B |---12-------|----12------|---12---------|
G |------------|------------|---------9~---|
D |------------|------------|--------------|
A |------------|------------|--------------|
E |------------|------------|--------------|
  |
  |Gtr. 2      P.M.*
e |------------|------------|--------------|
B |------------|------------|--------------|
G |------------|---*---**---|---------9----| Let ring.
D |-99-11-9-11-|-6-6-6-66-6-|-9-9-999-9----|
A |-77-7--7-7--|-6-6-6-66-6-|-9-9-999-7----|
E |------------|-4-4-4-44-4-|-7-7-777------|

 Chorus
e |-----------|-----------|-----------|------------97--|
B |-----10-9--|-----------|-----10-9--|--------------9-|
G |-9-9-----9-|-9-9-6-8-9-|-9-9-----9-|-9-9-9^(10)-----|
D |-9-9-------|-9-9-------|-9-9-------|-9-9------------|
A |-7-7-------|-7-7-------|-7-7-------|-7-7------------|
E |-----------|-----------|-----------|----------------|

  Gtr.1
e |----------|----------|----------|----------|----------|
B |----------|----------|----------|----------|----------|
G |----------|----------|----------|----------|----------|
D |----------|----------|----------|----------|-2~~~~~~~~|
A |----------|----------|----------|----------|----------|
E |----------|----------|----------|----------|----------|
  |
  |Gtr. 2
e |----------|----------|----------|----------|----------|----------|
B |----------|----------|----------|----------|----------|----------|
G |----------|----------|----------|----------|----------|----------|
D |----------|-2-4-22-4-|----------|-2-4-22-4-|----------|-2-4-22-4-|
A |-2-4-22-4-|-0-0-00-0-|-2-4-22-4-|-0-0-00-0-|-2-4-22-4-|-0-0-00-0-|
E |-0-0-00-0-|----------|-0-0-00-0-|----------|-0-0-00-0-|----------|

  Gtr. 1
e |----------|----------|----------|----------|----------|----------|
B |----------|----------|----------|----------|----------|----------|
G |----------|----------|----------|----------|----------|----------|
D |----------|----------|-1/2~~~~~~|----------|----------|----------|
A |----------|----------|----------|----------|----------|----------|
E |----------|----------|----------|----------|----------|----------|
  |
  |Gtr. 2
e |----------|----------|----------|----------|----------|----------|
B |----------|----------|----------|----------|----------|----------|
G |----------|----------|----------|----------|----------|----------|
D |----------|-2-4-22-4-|----------|-2-4-22-4-|----------|-2-4-22-4-|
A |-2-4-22-4-|-0-0-00-0-|-2-4-22-4-|-0-0-00-0-|-2-4-22-4-|-0-0-00-0-|
E |-0-0-00-0-|----------|-0-0-00-0-|----------|-0-0-00-0-|----------|

  Gtr. 1
e |-5/12~~~~~-|----------|----------|----------|
B |-5/12~~~~~-|----------|----------|----------|
G |-----------|----------|----------|----------|
D |-----------|----------|----------|----------|
A |-----------|----------|----------|----------|
E |-----------|----------|----------|----------|
  |
  |Gtr. 2
e |----------|----------|----------|----------|
B |----------|----------|----------|----------|
G |----------|----------|----------|----------|
D |----------|-2-4-22-4-|----------|-2-4-22-4-|
A |-2-4-22-4-|-0-0-00-0-|-2-4-22-4-|-0-0-00-0-|
E |-0-0-00-0-|----------|-0-0-00-0-|----------|

This next part, the rhythm just plays that simple blues line and the lead does a simple 
shown below.

e |-12-12-12\-5-5-5-| You can figure out how that is played by listening to
B |-12-12-12\-5-5-5-| the song. I use a mix of sharp upstrokes and down-
G |-----------------| strokes.
D |-----------------|
A |-----------------|
E |-----------------|

e |------12----12-------5---5------------------| I end the song by going crazy with this for
B |----12----12--------5---5-------------------| a while, then ending it with this.
G |-14^----14^---14^-7^--7^--7^----------------|
D |-----------------------------| e |----------|
A |-----------------------------| B |-12-------|
E |-----------------------------| G |-14^(16)--|

Well, there it is. Have fun.

                                   Key
^ - Bend note to note in ()
P.M.* - The notes with * means that it is palm muted
~ - Vibrato
/ - Slide up to the note next to it
\ - Slide down to the note next to it
Related for Jail Guitar Doors tab