Guitaretab - guitar tabs
Song name
# A B C D E F G H I J K L M N O P Q R S T U V W X Y Z

Class 3 Midemeanor - I Am An Idiot tab

Class 3 Midemeanor, I Am An Idiot.
 Tabbed by Luke, adidas44444@hotmail.com.
  
I  Am An Idiot
Riff 1:
--------------------------------
--------------------------------
--------------------------------                X3
--------------------------------
------0--2--3--2--0--2--0--
--2----------------------------

Riff 2:
--------------------------------
--------------------------------
--------------------------------
--------------------------------
--------------------------------
--2----2--2----0----0--0----

Riff 1:
--------------------------------
--------------------------------
--------------------------------                X3
--------------------------------
------0--2--3--2--0--2--0--
--2----------------------------

Riff 3:
--------------------------------
--------------------------------
--------------------------------                
--------------------------------
--------------------------------
--0----0--0----2----2--2----
[ Tab from: http://www.guitaretab.com/c/class-3-midemeanor/27896.html ]
Riff 4:
--2----2--2----0----0--0----2----2--2----0----0--0----
--2----2--2----0----0--0----2----2--2----0----0--0----
--3----3--3----2----2--2----3----3--3----1----1--1----          X2
--4----4--4----2----2--2----4----4--4----2----2--2----
--4----4--4----0----0--0----4----4--4----2----2--2----
--2----2--2----0----0--0----2----2--2----0----0--0----

Riff 1:

Riff 2:

Riff 1:

Riff 3:

Riff 4:

Chorus:
--2----2--2----4----4--4----5----5--5----5--5--5----
--2----2--2----5----5--5----5----5--5----5--5--5----
--3----3--3----6----6--6----6----6--6----6--6--6----            X3
--4----4--4----6----6--6----7----7--7----7--7--7----
--4----4--4----4----4--4----7----7--7----7--7--7----
--2----2--2----4----4--4----5----5--5----5--5--5----

End Chorus:
--0--0--0--0--0--0--0--0--0--0--0--
--0--0--0--0--0--0--0--0--0--0--0--
--1--1--1--1--1--1--1--1--1--1--1--
--2--2--2--2--2--2--2--2--2--2--2--
--2--2--2--2--2--2--2--2--2--2--2--
--0--0--0--0--0--0--0--0--0--0--0
 
:: Ultimate Guitar Archive :: 
http://www.ultimate-guitar.com 



Related for I Am An Idiot tab