Song name
# A B C D E F G H I J K L M N O P Q R S T U V W X Y Z

Class Clown - Wrongside tab

(lead intro)
e|-------------------------------------------------------------------------|
B|-------------------------------------------------------------------------|
G|-------------------------------------------------------------------------|
D|---9-5-4-4h5p4--4----9-5-4-4h5p4--4----9-4-4h5p4-4----9-5-4h5p4--4-------|
A|--5------------5----5------------5----5---------5----5----------5--------|
E|-------------------------------------------------------------------------|

e|-------------------------------------------------------------------------|
B|-------------------------------------------------------------------------|
G|-------------------------------------------------------------------------|
D|---9-5-4-4h5p4--4--------------------------------------------------------|
A|--5------------5---------------------------------------------------------|
E|-------------------------------------------------------------------------|

(rhythym intro)come in on 2nd lead intro
e|-------------------------------------------------------------------------|
B|-------------------------------------------------------------------------|
G|------7-5-------5------7-5------5------7-5-------------------------------|
D|-5~---7-5-5-5---5-5-5--7-5-5-5--5-5-5--7-5-5-5---------------------------|
A|-5~---5-3-5-5---3-5-5--5-3-5-5--3-5-5--5-3-5-5---------------------------|
E|-3~-------3-3-----3-3------3-3----3-3------3-3---------------------------|

I'll tab the whole song when i have a guitar handy =] but thats pretty much it!
Tap to rate this tab
# A B C D E F G H I J K L M N O P Q R S T U V W X Y Z