Song name
# A B C D E F G H I J K L M N O P Q R S T U V W X Y Z

Classical - Ghost Riders On The Sky tab

This is the aproximate tab song  Enjoy =D!  Tab By kevin0391
Saludos a Boston Cancun..........


e|----------------------------------|
B|----------------------------------|
G|----------------------------------|
D|----------------------------------|
A|----------------------------------|
E|--0---5-5-5-5--7--8-8-8-8---------|

e|----------------------------------|
B|----------------------------------|
G|----------------------------------|
D|----------------------------------|
A|----------------------------------|
E|--7--3-3-3-3-0-3------------------|

e|----------------------------------|
B|----------------------------------|
G|----------------------------------|
D|----------------------------------|
A|----------------------------------|
E|--0---5-5-5-5--7--8-8-8-8---------|

e|----------------------------------|
B|----------------------------------|
G|----------------------------------|
D|----------------------------------|
A|----------------------------------|
E|-10-12-12-12-12-8-12--------------|

e|-----------------------------5~~--|
B|-----------------------------5~~--|
G|----------------------------------|
D|----7--7--------------------------|
A|--7------7--7-3-------------------|
E|-----------------7--5--3--0-------|
Tap to rate this tab
 
# A B C D E F G H I J K L M N O P Q R S T U V W X Y Z