Song name
# A B C D E F G H I J K L M N O P Q R S T U V W X Y Z

Classical - The Dream tab

 The Dream                                     


 
|--0--------------|-----------------|-----------------|------------0----|
|-------1----1----|--3----0----0----|--1--------------|-------0---------|
|-----------------|-----------------|-------2----2----|--1--------------|
|-----------------|-----------------|-----------------|-----------------|
|-----------------|-----------------|-----------------|-----------------|
|-----------------|-----------------|-----------------|-----------------|


   
--0--------------|-----------------|-----------------|-----------0-----||
-------1----1----|--3----0----0----|-------1----0----|-----------------||
-----------------|-----------------|--2--------------|--2-------------*||
-----------------|-----------------|-----------------|----------------*||
-----------------|-----------------|-----------------|-----------------||
-----------------|-----------------|-----------------|-----------------||


  
--1---------1----|--3----1---------|--0---------0----|--1----0---------|
-------3---------|------------3----|-------1---------|------------1----|
-----------------|-----------------|-----------------|-----------------|
-----------------|-----------------|-----------------|-----------------|
-----------------|-----------------|-----------------|-----------------|
-----------------|-----------------|-----------------|-----------------|


  
-----------------|--0--------------|-----------------|--0--------0----|
--3----0----3----|-------3----0----|--1----1----3----|----------------|
-----------------|-----------------|-----------------|----------------|
-----------------|-----------------|-----------------|----------------|
-----------------|-----------------|-----------------|----------------|
-----------------|-----------------|-----------------|----------------|


   
--1---------1----|--3----1---------|--0---------0----|--1----0---------|
-------3---------|------------3----|-------1---------|------------1----|
-----------------|-----------------|-----------------|-----------------|
-----------------|-----------------|-----------------|-----------------|
-----------------|-----------------|-----------------|-----------------|
Tap to rate this tab
 
# A B C D E F G H I J K L M N O P Q R S T U V W X Y Z