Song name
# A B C D E F G H I J K L M N O P Q R S T U V W X Y Z

Classical - Beethoven - Ode To Joy tab

Bethoveen - Ode To Joy
Tabbed By: mARIO
EMail: pocas_trancas39@hotmail.com


E|---0-0-1-3-3-1-0---------0-0------------------|
B|-----------------3-1-1-3-----3-3--------------|
G|----------------------------------------------|
D|----------------------------------------------|
A|----------------------------------------------|
E|----------------------------------------------|


E|---0-0-1-3-3-1-0---------0--------------------|
B|-----------------3-1-1-3---3-1-1--------------|
G|----------------------------------------------|
D|----------------------------------------------|
A|----------------------------------------------|
E|----------------------------------------------|

E|-------0------0-1-0-------0-1-0--------3------|
B|---3-3---1--3-------1--3---------3-1-3--------|
G|----------------------------------------------|
D|----------------------------------------------|
A|----------------------------------------------|
E|----------------------------------------------|

E|---0-0-1-3-3-1-0---------0--------------------|
B|-----------------3-1-1-3---3-1-1-VVVVVVV------|
G|----------------------------------------------|
D|----------------------------------------------|
A|----------------------------------------------|
E|----------------------------------------------|VVVV = VIBRATION 
HI , IM FROM TIJUANA MEXICO , IM 14 YEARS OLD ,
 I REALLY DON'T KNOW HOW TO PLAY GUITAR 
, BUT , I LEARNED THIS , FROM , FROM , HEY , I DON'T KNOW WERE , BUT I KNOW IT , 
SO I HOPE 
YOU ENJOY IT , ITS A NICE SONG ,
 BUT THE PROBLEM IS , THAT I DON'T REMEMBER THE NAME , IS CALLED ,LIKE , 
AH ,JOY SOMETHING I DUNNO I HOPE YOU KNOW , MY MAIL IS POCAS_TRANCAS39@HOTMAIL.COM
Tap to rate this tab
# A B C D E F G H I J K L M N O P Q R S T U V W X Y Z