Song name
# A B C D E F G H I J K L M N O P Q R S T U V W X Y Z

Claude Debussy - Reverie tab

Help us improve GuitareTab! Take a short survey!
Song: Reverie
Band: Passafire
Album: Submersible
Tabbed By: O-52-A-50-R


Intro

|--------------------|
|--------------------|
|7-7-7-7-7-7-7-7-7-7-|
|7-7-7-6-6-6-5-5-5-4-|
|--------------------|
|--------------------|

|---------------------|
|---------------------|
|7-7-7-7-7-7-7-7-7-7~-|
|7-7-7-6-6-6-5-5-5-4~-|
|---------------------|
|---------------------|


(The following bracket is actually bass but here is it transcribed for guitar)

|--------------------|
|--------------------|
|--------------------|
|0-0-0-0-1-0-1-0-0-0-| (repeat as necessary)
|--------------------|
|--------------------|


|--------|
|6-6-6-6-|
|7-7-7-7-|
|7-7-7-7-| (repeat as necessary)
|5-5-5-5-|
|--------|

Verse

|------------------------|
|------------------------|
|7-7-7-7-7-7-7-------4-7-|
|7-7-6-6-5-5-4---4-7-----|
|--------------5---------|
|------------------------|

|------------------------|
|------------------------|
|7-7-7-7-7-7-------------|
|7-7-6-6-5-5---7-7-------|
|------------5-----5-8---|
|------------------------|

|------------------------|
|------------------------|
|7-7-7-7-7-7-7-------4-7-|
|7-7-6-6-5-5-4---4-7-----|
|--------------5---------|
|------------------------|

|----------------------|
|--------------6-6-6-7-|
|7-7-7-7-7-7-7-7-7-7-7-|
|7-7-6-6-5-5-4---------|
|----------------------|
|----------------------|

Chorus

(The guitar is very faint, but if you listen closely youll here it)

|----------------------------------------------|
|--8-----8-----7-----8-----5-----5-----5-----5-|
|7---7-------7---7-------4---4-0-----3---3-0---|
|------9-----------9---------------------------| (Repeat as
|----------------------------------------------| necessary)
|----------------------------------------------|


After-Chorus

(The following bracket is actually bass but here is it transcribed for guitar)

|--------------------|
|--------------------|
|--------------------|
|0-0-0-0-1-0-1-0-0-0-| (repeat as necessary)
|--------------------|
|--------------------|


|--------|
|6-6-6-6-|
|7-7-7-7-|
|7-7-7-7-| (repeat as necessary)
|5-5-5-5-|
|--------|

Verse

|------------------------|
|------------------------|
|7-7-7-7-7-7-7-------4-7-|
|7-7-6-6-5-5-4---4-7-----|
|--------------5---------|
|------------------------|

|------------------------|
|------------------------|
|7-7-7-7-7-7-------------|
|7-7-6-6-5-5---7-7-------|
|------------5-----5-8---|
|------------------------|

|------------------------|
|------------------------|
|7-7-7-7-7-7-7-------4-7-|
|7-7-6-6-5-5-4---4-7-----|
|--------------5---------|
|------------------------|

|----------------------|
|--------------6-6-6-7-|
|7-7-7-7-7-7-7-7-7-7-7-|
|7-7-6-6-5-5-4---------|
|----------------------|
|----------------------|

Solo/Bridge


|-3~-3~-|
|-3~-3~-|
|-5~-3~-|
|-5~-5~-|
|-3~-5~-|
|-3~-3~-|


|--------------------------------|
|--------------------------------|
|--------------------------------|
|----0-3-3-3-3-0---0-----0-------|
|0-3-------------3---0-3---------|
|--------------------------3-3-1-|

|-3~-3~-|
|-3~-3~-|
|-5~-3~-|
|-5~-5~-|
|-3~-5~-|
|-3~-3~-|

|--------------------------------|
|--------------------------------|
|--------------------------------|
|----0-3-3-3-3-0---0-----0-------|
|0-3-------------3---0-3---------|
|--------------------------3-3-1-|


|-3~-3~-1~-0~-|
|-3~-3~-1~-0~-|
|-5~-3~-2~-0~-|
|-5~-5~-3~-2~-|
|-3~-5~-3~-2~-|
|-3~-3~-1~-0~-|

Outro


|----------------------------------------------------------------|
|8xx8xxxx8xx8xxxx7xx7xxxx7xx7xxxx5xx5xxxx5xx5xxxx5xx5xxxx5xx5xxxx|
|----------------------------------------------------------------|
|----------------------------------------------------------------|
|----------------------------------------------------------------|
|----------------------------------------------------------------|

^^Repeat as necessary^^

|--------------------------------|
|5-----5-5-----5-5-----5-5-----5-|
|--3-3-----3-3-----3-3-----3-3---| (Same speed as bracket
|--------------------------------| above)
|--------------------------------|
|--------------------------------|

(For the following 2 brackets I have no idea how many of each note is getting hit so 
give you single notes. Also note that this is at the same speed as the two brackets above 
not the same rhythm)

|------------------------------------------------------------|
|------------------------------------------------------------|
|0---0---0---------------------------------------------------|
|------------4---4---4---4---2---2---2---2---2---2---2---2---|
|--2---2---2---2---2---2---2---2---2---2---2---2---2---2---2-|
|------------------------------------------------------------|

^^Repeat as necessary^^

|---------------------------------------------------------------|
|80-8-0-80-8-0-70-7-0-70-7-0-50-5-0-50-5-0-50-5-0-50-5-0|
|---------------------------------------------------------------|
|---------------------------------------------------------------|
|---------------------------------------------------------------|
|---------------------------------------------------------------|

^^Repeat as necessary^^

|--------------------|
|--------------------|
|--------------------|
|0-0-0-0-1-0-1-0-0-0-| (repeat as necessary)
|--------------------|
|--------------------|
Related for Reverie tab