Song name
# A B C D E F G H I J K L M N O P Q R S T U V W X Y Z

Claude Kelly - I Hate Love tab

Claude Kelly  I Hate Love
By: Kelvin Lieu
Standard tuning required.
Chords: Em, C, G, D
Though this is only the intro (the first 4 by 4). 
This is only my first tab and chord, so don't be too harsh. 
Repeat this throughout song.
Email: da_unknown_azn@hotmail.com     add me & comment :)


             Em                               C                       G

e|----------------------------|---------------------------|--------------------------|
B|--------------5/6-----3-----|----------------------1----|---------1-----------3----|
G|--0----3--------------------|---0-----3------0----------|---3------------3---------|
D|----------------------------|---------------------------|--------------------------|
A|----------------------------|---------------------------|--------------------------|
E|----------------------------|---------------------------|--------------------------|


              D

e|----------------------------|
B|---4------3-------1---------|
G|----------------------------|
D|----------------------------|
A|----------------------------|
E|----------------------------|




             Em                               C                       G

e|----------------------------|---------------------------|--------------------------|
B|--------------5/6-----3-----|----------------------1----|---------1-----------1----|
G|--0----3--------------------|---0-----3------0----------|---3------------3---------|
D|----------------------------|---------------------------|--------------------------|
A|----------------------------|---------------------------|--------------------------|
E|----------------------------|---------------------------|--------------------------|

              D

e|----------------------------|
B|--------3------1------------|
G|---------------------3------|
D|----------------------------|
A|----------------------------|
E|----------------------------|
Tap to rate this tab
# A B C D E F G H I J K L M N O P Q R S T U V W X Y Z