Song name
# A B C D E F G H I J K L M N O P Q R S T U V W X Y Z

Claude Nougaro - Ile De Re tab

This is my first tab so please be cool with me.
I am not doing a good job at rendering the rythm
so you'll have to listen to the song.
I believe the melody is good though. Enjoy !


e-----------|---------|-------------|
B-----------|---------|-------------|
G---------2-|0-------2|0------------|
D-0-0-2-3---|----0-2--|------0-3-2-0|
A-----------|--3------|--1-3--------|
E-----------|---------|-------------|

e-----------|---------|-------------|
B-----------|---------|-------------|
G---------2-|0-------2|0-----------2|
D-0-0-2-3---|----0-2--|------0-3-2--|
A-----------|--3------|--1-3--------|
E-----------|---------|-------------|

e-----------|-----------|--------------|
B-----------|-----------|--------------|
G3-3-2-3-5-0|0-2-0-2-3--|--0--0-2-----2|
D-----------|----------3|3--3-----2-2--|
A-----------|-----------|--------------|
E-----------|-----------|--------------|


e-----------|-----------|--------------------|
B-----------|-----------|--------------------|
G3-3-2-3-5-0|0-2-0-2-3--|--0--0-2-----0------|
D-----------|----------3|3--3-----2-2---4-2-4|
A-----------|-----------|--------------------|
E-----------|-----------|--------------------|

Tap to rate this tab
# A B C D E F G H I J K L M N O P Q R S T U V W X Y Z