Song name
# A B C D E F G H I J K L M N O P Q R S T U V W X Y Z

Claude Sirois - Sound Of Silence tab

Help us improve GuitareTab! Take a short survey!
   The sound of silence,  arrangement pour guitare  par Claude Sirois

                 Guitariste québecois

           Écrit en tablature par Steve Morin


|-------------------|------------------|-----------------|
|---------------0-0-|------------------|-----------------|
|----------0-0------|-2-------2-----2--|-------------2-2-|
|-----2-2-----------|-----4-----4------|--------4-4------|
|-------------------|-5-----5-----5----|-5-5-5-----------|
|-0-----------------|------------------|-----------------|

|-------------------|------------------|-0---0-----------|
|-------------------|--------0-0-3-3---|---------3-----3-|
|-0--------0------0-|--0-0-0-----------|-0---------0-----|
|-----2------2------|------------------|-------------0---|
|-------2------2----|------------------|-3---------------|
|-0-----------------|--------3---------|---------3-------|


|-------------------|-0---0------------|-----------------|
|---------0-0-3-3---|---------3-----3--|-----------------|
|---0-0-0-----------|-0---------0------|----0----0-------|
|-------------------|-------------0----|-----------------|
|-------------------|-3----------------|-----------------|
|---------3---------|---------3--------|-----------------|

|-0-----------0-2---|-3-----3--2----0--|-------------0---|
|-----1-------------|---1--------------|-3-------------3-|
|-------0-----------|-----0------------|-----0-----------|
|-------------------|------------------|-------0---------|
|-3-------3---------|-3----------------|-----------------|
|-------------------|------------------|-3-------3-------|


|-------------------|------------------|-----------------|
|-0--------0------0-|------------------|-3---------------|
|-----0------0------|------0----0------|-----2-----2---2-|
|-------2------2----|------------------|-------4-----4---|
|-------------------|------------------|-5-------5-------|
|-0-----------------|-3----------------|-----------------|

|-------------------|------------------|-----------------|
|-------------------|------------------|-----------------|
|-------------------|-0----------------|-----------------|
|-------------4-----|-----2------2-----|-----------------|
|-5-----------------|---------2------2-|-----------------|
|-------------------|-0------------3---|--0--------------|


pompom020366@hotmail.com

Related for Sound Of Silence tab