Song name
# A B C D E F G H I J K L M N O P Q R S T U V W X Y Z

Claude Sirois - House Of The Rising Sun tab

 The house of the rising sun, tab by Claude Sirois


 Transcrit en tablature par Steve Morin , pour guitare classique


 |       |       |       |        |       |       |       |        
|--------------------------------|--------------------------------|
|--------------1-----------------|--------------1-----------------|
|----------2-----------2---------|----------0-----------0---------|
|------2-------------------2-----|------2-------------------2-----|
|--0---------------------------0-|--3---------------------------3-|
|--------------------------------|--------------------------------|
 
 |       |       |       |        |       |       |       |        
|--------------2-----------------|--------------1-----------------|
|----------3-----------3---------|----------1-----------1---------|
|------2-------------------2-----|------2-------------------2-----|
|--0---------------------------0-|--3---------------------------3-|
|--------------------------------|--------------------------------|
|--------------------------------|--------------------------------|
 
 |       |       |       |        |       |       |       |        
|--------------------------------|--------------------------------|
|--------------1-----------------|--------------1-----------------|
|----------2-----------2---------|----------0-----------0---------|
|------2-------------------2-----|------2-------------------2-----|
|--0---------------------------0-|--3---------------------------3-|
|--------------------------------|--------------------------------|
 
 |       |       |       |        |       |       |       |        
|--------------0-----------------|--------------0-----------------|
|----------0-----------0---------|----------0-----------0---------|
|------1-------------------1-----|------1-------------------1-----|
|------------------------------2-|------------------------------2-|
|--------------------------------|--------------------------------|
|--0-----------------------------|--0-----------------------------|
 
 |       |       |       |        |       |       |       |        
|--------------------------------|--------------------------------|
|--------------1-----------------|--------------1-----------------|
|----------2-----------2---------|----------0-----------0---------|
|------2-------------------2-----|------2-------------------2-----|
|--0---------------------------0-|--3---------------------------3-|
|--------------------------------|--------------------------------|
 
 |       |       |       |        |       |       |       |        
|--------------2-----------------|--------------1-----------------|
|----------3-----------3---------|----------1-----------1---------|
|------2-------------------2-----|------2-------------------2-----|
|--0---------------------------0-|--3---------------------------3-|
|--------------------------------|--------------------------------|
|--------------------------------|--------------------------------|
 
 |       |       |       |        |       |       |       |        
|--------------------------------|--------------------------------|
|--------------1-----------------|--------------0-----------------|
|----------2-----------2---------|----------1-----------1---------|
|------2-------------------2-----|------2-------------------2-----|
|--0---------------------------0-|--------------------------------|
|--------------------------------|--0---------------------------0-|
 
 |       |       |       |        |       |       |       |        
|--------------------------------|--------------------------------|
|--------------1-----------------|--------------0-----------------|
|----------2-----------2---------|----------1---------------------|
|------2-------------------2-----|------2-------------------2-----|
|--0---------------------------0-|--------------------------------|
|--------------------------------|--0-----------------------------|
 
 |       |       |       |        |       |       |       |        
|--------------------------------|--------------------------0-----|
|--------------------------0-----|--1-----------1-----------------|
|--2-----------2-----------------|------0-------------------------|
|------2-------------------------|----------2---------------------|
|--0-------0---------------------|--3-----------------------------|
|--------------------------------|--------------------------------|
 
 |       |       |       |        |       |       |       |        
|--------------------------------|--------------------------5-----|
|--3-----------3-----------------|--1-----------1-----------------|
|------2-------------------2-----|------2-------------------------|
|--0-------0---------------------|--3-------3---------------------|
|--------------------------------|--------------------------------|
|--------------------------------|--------------------------------|
 
 |       |       |       |        |       |       |       |        
|--5---0-------5-----------5-----|--3-----------3-------0---------|
|----------1---------------------|------1-------------------3-----|
|--------------------------------|----------0---------------------|
|--------------------------------|--------------2-----------------|
|--0-----------------------------|--3-----------------------------|
|--------------------------------|--------------------------------|
 
 |       |       |       |        |       |       |       |        
|--0-----------------------------|--0-------------------5---5-----|
|------0-------------------0-----|------0-------------------------|
|----------1-----------1-------1-|----------1---------------------|
|--------------2-----------------|--------------2-----------------|
|--------------------------------|--------------------------------|
|--0-----------------------------|--0-----------------------------|
 
 |       |       |       |        |       |       |       |        
|--5---0-------------------5-----|--3-----------------------------|
|----------1---------------------|------1-------------------1-----|
|--------------2-----------------|----------0---------------------|
|--------------------------------|--------------2-----------------|
|--0-----------------------------|--------------------------------|
|--------------------------------|--8-----------------------------|
 
 |       |       |       |        |       |       |       |        
|--------------------------------|--------------------------------|
|--3-----------3-----------------|--1-----------------------------|
|------2-------------------2-----|------2---------------2---2-----|
|--0-------0---------------------|----------3---------------------|
|--------------------------------|--------------------------------|
|--------------------------------|--1-----------1-----------------|
 
 |       |       |       |        |       |       |       |        
|--------------------------------|--------------------------------|
|--------------------------1-----|--0-----------0---1-------0-----|
|--2-----------2-----------------|------1-------------------------|
|------2-------------------------|----------2---------------------|
|--0-------0---------------------|--------------------------------|
|--------------------------------|--0-----------------------------|
 
 |       |       |       |        |       |       |       |        
|--------------------------------|--------------------------------|
|--------------1-----------------|--------------1-----------------|
|----------2-----------2---------|----------0-----------0---------|
|------2-------------------2-----|------2-------------------2-----|
|--0---------------------------0-|--3---------------------------3-|
|--------------------------------|--------------------------------|
 
 |       |       |       |        |       |       |       |        
|--------------2-----------------|--------------1-----------------|
|----------3-----------3---------|----------1-----------1---------|
|------2-------------------2-----|------2-------------------2-----|
|--0---------------------------0-|--3---------------------------3-|
|--------------------------------|--------------------------------|
|--------------------------------|--------------------------------|
 
 |       |       |       |        |       |       |       |        
|--------------------------------|--------------------------------|
|--------------1-----------------|--------------0-----------------|
|----------2-----------2---------|----------1-----------1---------|
|------2-------------------2-----|------2-------------------2-----|
|--0---------------------------0-|--------------------------------|
|--------------------------------|--0---------------------------0-|
 
 |       |       |       |        |       |       |       |        
|--------------------------------|--------------------------------|
|--------------1-----------------|--------------------------------|
|----------2-----------2---------|--------------------------------|
|------2-------------------2-----|--------------------------------|
|--0---------------------------3-|--0-----------------------------|
|--------------------------------|--------------------------------|
 
 |       |       |       Fin      
|--5-----------------------------|
|--5-----------------------------|
|--5-----------------------------|
|--------------------------------|
|--------------------------------|
|--------------------------------|

pompom020366@hotmail.com
Tap to rate this tab
# A B C D E F G H I J K L M N O P Q R S T U V W X Y Z