Song name
# A B C D E F G H I J K L M N O P Q R S T U V W X Y Z

Claude Sirois - People Are Strange tab

   People are strange tab by Claude Sirois

   transcrit en tablature par Steve Morin


|       |       |       |        |       |       |       |        
|--0---2---0---3-----------0-----|--5---7---5---3-----------0-----|
|--0---------------0-----------0-|--5---------------0-----------0-|
|--0-------------------0---------|--5-------------------0---------|
|--------------------------------|--------------------------------|
|--------------------------------|--0-----------------------------|
|--0-----------0-----------------|--------------0-----------------|
 
 |       |       |       |        |       |       |       |        
|--5---7---5---3-----------0-----|--2---3---2---0-----------------|
|--5---------------0-----------0-|--0-------------------0---------|
|--5-------------------0---------|--2-----------------------0-----|
|--------------------------------|------------------------------2-|
|--0-----------------------------|--2-----------------------------|
|--------------0-----------------|--------------0-----------------|
 
 |       |       |       |        |       |       |       |        
|--0---2---0---3-----------0-----|--5---7---5---3-----------0-----|
|--0---------------0-----------0-|--5---------------0-----------0-|
|--0-------------------0---------|--5-------------------0---------|
|--------------------------------|--------------------------------|
|--------------------------------|--0-----------------------------|
|--0-----------0-----------------|--------------0-----------------|
 
 |       |       |       |        |       |       |       |        
|--5---7---8---3-----------0-----|--2---3---2---2-------7---7-----|
|--5---------------0-----------0-|--0-----------------------------|
|--5-------------------0---------|--2-----------------------------|
|--------------------------------|--------------------------------|
|--0-----------------------------|--2-----------------------------|
|--------------0-----------------|--------------0-----------------|
 
 |       |       |       |        |       |       |       |        
|--7---2-------------------2---7-|--3-------3-------3---3---3-----|
|----------3---0-------3-------12|--3-------3-------3-------------|
|--------------------------------|--4-------4-------4-------------|
|--------------------------------|--5-------5-------5-------------|
|--2-----------------------------|--------------------------------|
|--------------------------------|--------------------------------|
 
 |       |       |       |        |       |       |       |        
|--7---2---------------7---10----|--7---2-------------------2---7-|
|----------3---0-----------------|----------3---0-------3-------12|
|--------------------------------|--------------------------------|
|--------------------------------|--------------------------------|
|--2-----------------------------|--2-----------------------------|
|--------------------------------|--------------------------------|
 
 |       |       |       |        |       |       |       |        
|--3-------3-------3---3---3-----|--7---2---------------7---10----|
|--3-------3-------3-------------|----------3---0-----------------|
|--4-------4-------4-------------|--------------------------------|
|--5-------5-------5-------------|--------------------------------|
|--------------------------------|--2-----------------------------|
|--------------------------------|--------------------------------|
 
 |       |       |       |        |       |       |       |        
|--7---2---------------7---10----|--7---2---------------7---10----|
|----------3---0-----------------|----------3---0-----------------|
|--------------------------------|--------------------------------|
|--------------------------------|--------------------------------|
|--2-----------------------------|--2-----------------------------|
|--------------------------------|--------------------------------|
 
 |       |       |       |        |       |       |       |        
|--7---2-------3-----------3-----|--7-------5-------3-------2-----|
|----------4-----------4-------4-|--------------------------------|
|--------------------------------|--------------------------------|
|--------------------------------|--------------------------------|
|--2-----------------------------|--2-------0---------------------|
|--------------------------------|------------------3-------2-----|
 
 |       |       |       |        |       |       |       |        
|--0---2---0---3-----------0-----|--5---7---5---3-----------0-----|
|--0---------------0-----------0-|--5---------------0-----------0-|
|--0-------------------0---------|--5-------------------0---------|
|--------------------------------|--------------------------------|
|--------------------------------|--0-----------------------------|
|--0-----------0-----------------|--------------0-----------------|
 
 |       |       |       |        |       |       |       |        
|--5---7---5---3-----------0-----|--2---3---2---0-----------------|
|--5---------------0-----------0-|--0-------------------0---------|
|--5-------------------0---------|--2-----------------------0-----|
|--------------------------------|------------------------------2-|
|--0-----------------------------|--2-----------------------------|
|--------------0-----------------|--------------0-----------------|
 
 |       |       |       |   FIn  
|--------------------------------|
|--------------------------------|
|--------------------------------|
|--------------------------------|
|--------------------------------|
|--0-----------------------------|

pompom020366@hotmail.com
Tap to rate this tab
 
# A B C D E F G H I J K L M N O P Q R S T U V W X Y Z