Song name
# A B C D E F G H I J K L M N O P Q R S T U V W X Y Z

Claude Sirois - Spiderman tab

      Spiderman arrangement par Claude Sirois

         Traduit en tablature par Steve Morin



|       |       |       |        |       |       |       |        
|------0-------------------------|------0---1-0-------------------|
|----1-----------4---1-----------|----1-----------4---1-----------|
|2---------------2-----2---------|2---------------2-----2---------|
|----------------1---------------|----------------1---------------|
|0-------------------------------|0-------------------------------|
|----------------1---------------|----------------1---------------|
 
 |       |       |       |        |       |       |       |        
|----1-5---------4---1-----------|------0---------------------1---|
|3---------------3-----3---------|----1-----------4---1-----------|
|----------------1---------------|2---------------2-----2---------|
|0-------------------------------|----------------1---------------|
|----------------1---------------|0-------------------------------|
|--------------------------------|----------------1---------------|
 
 |       |       |       |        |       |       |       |        
|0-------------------------------|--------0---1---3-----------1---|
|0---------------4---3-1-3---1---|--------------------0-----------|
|1---------------2-------1-------|2-----------------------0-------|
|0---------------1-------0-------|2-------------------------------|
|2-------------------------------|0-------------------------------|
|0---------------1-------0-------|----------------3---------------|
 
 |       |       |       |        |       |       |       |        
|0-------------------------------|--------0---1---3-----------1---|
|--------3---1---3-------1---0---|1-------------------0-----------|
|----0---------------1-----------|----2-------------------0-------|
|--------------------------------|--------------------------------|
|3-------------------------------|0-------------------------------|
|----------------0---------------|----------------3---------------|
 
 |       |       |       |        |       |       |       |        
|0-------------------------------|0-------------------------------|
|--------3---1---3-------1---3---|0-------------------------------|
|----0---------------------------|1-------------------------------|
|--------------------4-----------|--------------------------------|
|3---------------2---------------|--------------------------------|
|--------------------------------|0-------------------0---2---4---|
 
 |       |       |       |        |       |       |       |        
|------0-------------------------|------0---1-0-------------------|
|----1-------1---4---1-----------|----1-----------4---1-----------|
|2-------------2-2-----2---------|2---------------2-----2---------|
|----------------1-------2-------|----------------1-------2-------|
|0-------------------------------|0-------------------------------|
|----------------1-----------1---|----------------1-----------1---|
 
 |       |       |       |        |       |       |       |        
|----1-5-----1---4---1-----------|------0---------------------1---|
|3-------------3-3-----3---------|----1-------1---4---1-----------|
|----------------1-------2-------|2-------------2-2-----2---------|
|0-------------------------------|----------------1---------------|
|----------------1-----------2---|0-------------------------------|
|--------------------------------|----------------1---------------|
 
 |       |       |       |        |       |       |       |        
|0-------------------------------|------------0---------------0---|
|0---------------4-3-1---3---1---|--------1-------4-3-1---3-------|
|1---------------2-------1-------|2---------------2-------1-------|
|0---------------1-------1-------|2---------------1-------1-------|
|2-------------------------------|0-------------------------------|
|0---------------1-------0-------|----------------1-------0-------|
 
 |       |       |       |        
|7-------------------------------|
|5-------------------------------|
|5-------------------------------|
|--------------------------------|
|0-------------------------------|
|--------------------------------|
 
pompom020366@hotmail.com
Tap to rate this tab
# A B C D E F G H I J K L M N O P Q R S T U V W X Y Z