Song name
# A B C D E F G H I J K L M N O P Q R S T U V W X Y Z

Claude Sirois - White Room tab

 
       White Room arrangement par Claude Sirois

       transcrit en tablature par Steve Morin


|       |       |       |        |       |       |       |        
|10------------------------------|8-------------------------------|
|12------------------------------|10------------------------------|
|12------------------------------|10------------------------------|
|12------------------------------|10------------------------------|
|10------------------------------|8-------------------------------|
|--------------------------------|--------------------------------|
 
 |       |       |       |        |       |       |       |        
|5-------------------------------|3-------------------------------|
|6-------------------------------|5-------------------------------|
|7-------------------------------|5-------------------------------|
|7-------------------------------|5-------------------------------|
|5-------------------------------|3-------------------------------|
|--------------------------------|--------------------------------|
 
 |       |       |       |        |       |       |       |        
|--------------------------------|--------------------------------|
|3-------------------------------|1-------------------------------|
|3-------------------------------|2-------------------------------|
|5-------------------------------|3-------------------------------|
|5-------------------------------|3-------------------------------|
|3-------------------------------|1-------------------------------|
 
 |       |       |       |        |       |       |       |        
|--------------------------------|--------------------------------|
|--------------------------------|--------------------------------|
|2-------------------------------|0-------------------------------|
|3-------------------------------|2-------------------------------|
|5-------------------------------|3-------------------------------|
|--------------------------------|--------------------------------|
 
 |       |       |       |        |       |       |       |        
|--------------------1---0-------|--------------------------------|
|--------------------------------|3-------3-----------1---0-------|
|2-------------------------------|2-------------------0-----------|
|2-------------------------------|0-------------------------------|
|0-------------------------------|----------------3---------------|
|--------------------------------|--------------------------------|
 
 |       |       |       |        |       |       |       |        
|--------------------------------|--------------------------------|
|--------------------------------|--------3---------------3-------|
|2-------0-----------------------|--------2---------------0-------|
|0-------------------3---2-------|0-----------0-----------2-------|
|----------------2-------3-------|----------------3---3-----------|
|3-------------------------------|--------------------------------|
 
 |       |       |       |        |       |       |       |        
|------------------------1---0---|--------------------------------|
|--------3-----------------------|3-------3-----------1---0-------|
|--------0-----------------------|2-------------------0-----------|
|--------0-----------3-----------|0-------------------------------|
|----------------2-------3-------|----------------3---------------|
|3-------------------------------|--------------------------------|
 
 |       |       |       |        |       |       |       |        
|--------------------------------|--------------------------------|
|--------------------------------|--------3---------------3-------|
|2-------0-----------------------|--------2---------------0-------|
|0-------------------3---2-------|0-----------0-----------2-------|
|----------------2-------3-------|----------------3---3-----------|
|3-------------------------------|--------------------------------|
 
 |       |       |       |        |       |       |       |        
|------------------------1---0---|--------------------------------|
|--------3-----------------------|3-------3-----------1---0-------|
|--------0-----------------------|2-------------------0-----------|
|--------0-----------3-----------|0-------------------------------|
|----------------2-------3-------|----------------3---------------|
|3-------------------------------|--------------------------------|
 
 |       |       |       |        |       |       |       |        
|--------------------------------|--------------------------------|
|--------------------------------|--------3---------------3-------|
|2-------0-----------------------|--------2---------------0-------|
|0-------------------3---2-------|0-----------0-----------2-------|
|----------------2-------3-------|----------------3---3-----------|
|3-------------------------------|--------------------------------|
 
 |       |       |       |        |       |       |       |        
|------------------------1---0---|--------------------------------|
|--------3-----------------------|3-------3-----------1---0-------|
|--------0-----------------------|2-------------------0-----------|
|--------0-----------3-----------|0-------------------------------|
|----------------2-------3-------|----------------3---------------|
|3-------------------------------|--------------------------------|
 
 |       |       |       |        |       |       |       |        
|--------------------------------|--------------------------------|
|--------------------------------|--------3---------------3-------|
|2-------0-----------------------|--------2---------------0-------|
|0-------------------3---2-------|0-----------0-----------2-------|
|----------------2-------3-------|----------------3---3-----------|
|3-------------------------------|--------------------------------|
 
 |       |       |       |        |       |       |       |        
|--------------------------------|0-------0-----------1---3-------|
|--------3-----------------------|1-------1-----------1-----------|
|--------0-----------------------|0-------0-----------0-----------|
|--------0-----------3-------2---|--------------------------------|
|----------------2-------3-------|3---------------3---------------|
|3-------------------------------|--------------------------------|
 
 |       |       |       |        |       |       |       |        
|------------------------0-------|1-------1-----------3---1-------|
|3-------3-----------3-----------|3-------3-----------3-----------|
|0-------0-----------0-----------|4-------4-----------4-----------|
|0-------0-----------0-----------|--------------------------------|
|--------------------------------|2---------------2---------------|
|3---------------3---------------|--------------------------------|
 
 |       |       |       |        |       |       |       |        
|0-------------------------------|0-------0-----------1---3-------|
|2-------------------------------|1-------1-----------1-----------|
|2-------------------------------|0-------0-----------0-----------|
|2-------------------------------|--------------------------------|
|0-------------------------------|3---------------3---------------|
|--------------------------------|--------------------------------|
 
 |       |       |       |        |       |       |       |        
|------------------------0-------|1---------------1---------------|
|3-------3-----------3-----------|3---------------3---------------|
|0-------0-----------0-----------|4---------------4---------------|
|0-------0-----------0-----------|--------------------------------|
|--------------------------------|2---------------2---------------|
|3---------------3---------------|--------------------------------|
 
 |       |       |       |        |       |       |       |        
|0-------------------------------|--------------------1---0-------|
|1-------------------3---1-------|3-------------------------------|
|0-------------------------------|2-------------------------------|
|--------------------------------|0-------------------------------|
|3-------------------------------|--------------------------------|
|--------------------------------|--------------------------------|
 
 |       |       |       |        |       |       |       |        
|--------------------------------|--------------------------------|
|3-------3-----------1---0-------|--------------------------------|
|2-------------------0-----------|2-------0-----------------------|
|0-------------------------------|0-------------------3---2-------|
|----------------3---------------|----------------2-------3-------|
|--------------------------------|3-------------------------------|
 
 |       |       |       |        |       |       |       |        
|--------------------------------|------------------------1---0---|
|--------3---------------3-------|--------3-----------------------|
|--------2---------------0-------|--------0-----------------------|
|0-----------0-----------2-------|--------0-----------3-----------|
|----------------3---3-----------|----------------2-------2-------|
|--------------------------------|3-------------------------------|
 
 |       |       |       |        |       |       |       |        
|--------------------------------|--------------------------------|
|3-------3-----------1---0-------|--------------------------------|
|2-------------------0-----------|2-------0-----------------------|
|0-------------------------------|0-------------------3---2-------|
|----------------3---------------|----------------2-------3-------|
|--------------------------------|3-------------------------------|
 
 |       |       |       |        |       |       |       |        
|--------------------------------|------------------------1---0---|
|--------3---------------3-------|--------3-----------------------|
|--------2---------------0-------|--------0-----------------------|
|0-----------0-----------2-------|--------0-----------3-----------|
|----------------3---3-----------|----------------2-------3-------|
|--------------------------------|3-------------------------------|
 
 |       |       |       |        |       |       |       |        
|--------------------------------|--------------------------------|
|3-------3-----------1---0-------|--------------------------------|
|2-------------------0-----------|2-------0-----------------------|
|0-------------------------------|0-------------------3---2-------|
|----------------3---------------|----------------2-------3-------|
|--------------------------------|3-------------------------------|
 
 |       |       |       |        |       |       |       |        
|--------------------------------|------------------------1---0---|
|--------3---------------3-------|--------3-----------------------|
|--------2---------------0-------|--------0-----------------------|
|0-----------0-----------2-------|--------0-----------3-----------|
|----------------3---3-----------|----------------2-------3-------|
|--------------------------------|3-------------------------------|
 
 |       |       |       |        |       |       |       |        
|--------------------------------|--------------------------------|
|3-------3-----------1---0-------|--------------------------------|
|2-------------------0-----------|2-------0-----------------------|
|0-------------------------------|0-------------------3---2-------|
|----------------3---------------|----------------2-------3-------|
|--------------------------------|3-------------------------------|
 
 |       |       |       |        |       |       |       |        
|--------------------------------|--------------------------------|
|--------3---------------3-------|--------3-----------------------|
|--------2---------------0-------|--------0-----------------------|
|0-----------0-----------2-------|--------0-----------3-------2---|
|----------------3---3-----------|----------------2-------3-------|
|--------------------------------|3-------------------------------|
 
 |       |       |       |        |       |       |       |        
|0-------0-----------1---3-------|------------------------0-------|
|1-------1-----------1-----------|3-------3-----------3-----------|
|0-------0-----------0-----------|0-------0-----------0-----------|
|--------------------------------|0-------0-----------0-----------|
|3---------------3---------------|--------------------------------|
|--------------------------------|3---------------3---------------|
 
 |       |       |       |        |       |       |       |        
|1-------1-----------3---1-------|0-------------------------------|
|3-------3-----------3-----------|2-------------------------------|
|4-------4-----------4-----------|2-------------------------------|
|--------------------------------|2-------------------------------|
|2---------------2---------------|0-------------------------------|
|--------------------------------|--------------------------------|
 
 |       |       |       |        |       |       |       |        
|0-------0-----------1---3-------|------------------------0-------|
|1-------1-----------1-----------|3-------3-----------3-----------|
|0-------0-----------0-----------|0-------0-----------0-----------|
|--------------------------------|0-------0-----------0-----------|
|3---------------3---------------|--------------------------------|
|--------------------------------|3---------------3---------------|
 
 |       |       |       |        |       |       |       |        
|1---------------1---------------|0-------------------------------|
|3---------------3---------------|1-------------------3---1-------|
|4---------------4---------------|0-------------------------------|
|--------------------------------|--------------------------------|
|2---------------2---------------|3-------------------------------|
|--------------------------------|--------------------------------|
 
 |       |       |       |        |       |       |       |        
|--------------------------------|10------------------------------|
|3-------------------------------|12------------------------------|
|2-------------------------------|12------------------------------|
|0-------------------------------|12------------------------------|
|--------------------------------|10------------------------------|
|--------------------------------|--------------------------------|
 
 |       |       |       |        |       |       |       |        
|8-------------------------------|5-------------------------------|
|10------------------------------|6-------------------------------|
|10------------------------------|7-------------------------------|
|10------------------------------|7-------------------------------|
|8-------------------------------|5-------------------------------|
|--------------------------------|--------------------------------|
 
 |       |       |       |        |       |       |       |        
|3-------------------------------|--------------------------------|
|5-------------------------------|3-------------------------------|
|5-------------------------------|3-------------------------------|
|5-------------------------------|5-------------------------------|
|3-------------------------------|5-------------------------------|
|--------------------------------|3-------------------------------|
 
 |       |       |       |        |       |       |       |        
|--------------------------------|--------------------------------|
|1-------------------------------|--------------------------------|
|2-------------------------------|2-------------------------------|
|3-------------------------------|3-------------------------------|
|3-------------------------------|5-------------------------------|
|1-------------------------------|--------------------------------|
 
 |       |       |       |        |       |       |       |        
|--------------------------------|--------------------1---0-------|
|--------------------------------|--------------------------------|
|0-------------------------------|2-------------------------------|
|2-------------------------------|2-------------------------------|
|3-------------------------------|0-------------------------------|
|--------------------------------|--------------------------------|
 
 |       |       |       |        
|--------------------------------|
|3-------------------------------|
|2-------------------------------|
|0-------------------------------|
|--------------------------------|
|--------------------------------|
 

Created with TablEdit http://www.tabledit.com/



pompom020366@hotmail.com
Tap to rate this tab
# A B C D E F G H I J K L M N O P Q R S T U V W X Y Z